Payphone Cover Guitar Tab

|--16-13-------------------------------13----21\16--21\16--13-14-13---
|--------14-------------------------14------------------------------16
|-----------13-------------------13-----------------------------------
|--------------15-------------15--------------------------------------
|-----------------16----11-16-----------------------------------------
|---------------------------------------------------------------------

|-----------13----------------13----------------13
|--13-14-16----16-14-13-14-16----16-14-13-14-16---
|-------------------------------------------------
|-------------------------------------------------
|-------------------------------------------------
|-------------------------------------------------

|-----------13----------------13---------------------
|--13-14-16----16-14-13-14-16----16-14-13-14-16-13-14
|----------------------------------------------------
|----------------------------------------------------
|----------------------------------------------------
|----------------------------------------------------

|--21-16---------------------------------------------21-21-20-20---------------------
|--------18------------------------------------------------------21-21---------------
|-----------18-------------------20-17-18-17---------------------------20-20---------
|--------------18----------18----------------18------------------------------22-22---
|-----------------20----16----16----------------20---------------------------------23
|------------------------------------------------------------------------------------

|-------------------------------
|--14-16-18-14-16-18-14-16-16-14
|-------------------------------
|-------------------------------
|-------------------------------
|-------------------------------

|-----------16-------------16-------------16-------------16-------------16------------
|--14-16-18----18-14-16-18----18-14-16-18----18-14-16-18----18-14-16-18----18-14-18-16
|-------------------------------------------------------------------------------------
|-------------------------------------------------------------------------------------
|-------------------------------------------------------------------------------------
|-------------------------------------------------------------------------------------

|-------------------------------
|--14-16-18-14-16-18-14-16-16-14
|-------------------------------
|-------------------------------
|-------------------------------
|-------------------------------

|-----------16-18----------16-18----------16-18----------16-18----------16-18----------16
|--14-16-18-------14-16-18-------14-16-18-------14-16-18-------14-16-18-------14-16-18---
|----------------------------------------------------------------------------------------
|----------------------------------------------------------------------------------------
|----------------------------------------------------------------------------------------
|----------------------------------------------------------------------------------------

|--18-16
|-------
|-------
|-------
|-------
|-------

|---------------------------------9-14-------9-14-13-9----------------------9-13-9
|------------------------------------------------------11----------------11-------
|---------------------11----11-15------11-15--------------10----------10----------
|----------11------------------------------------------------11----11-------------
|--9-13-14----9-13-14-------------------------------------------13----------------
|---------------------------------------------------------------------------------

|----------------
|----------------
|--13-15-13-15-17
|----------------
|--11-13-11-13-15
|----------------

|--------------------------------------------------------------------------------
|--------------------------------------------------------------------------------
|--------------------------------------------------------------------------------
|--------------------------------------------------------------------------------
|---------------------------------------------------------------------6-6---6-6-8
|--4-4-4----4-4-4-4-4-4-----4-4-4-4-4-4-4-4-----8-8-8-----8-8-8---8-8-----8------

|--------------------------------------
|--------------------------------------
|--------------------------------------
|--------------------------------------
|--------------------------------------
|--6-6----6-6----6-6-8-8-6---6-6--6-6-6

Guitar Tab Creator is intended to store guitar tab created through the tool. It currently does not support in-line text editing. Any text you place in here will be lost. If you need to comment on your tab, please use the "Tab Notes" section located below.