Make Believe Rhythm Guitar I

(/) Slide Up  (\) Slide Down  (h) Hammer On  (p) Pull Off  (b) Bend (r) Release (v) Vibrato

E|--------------------------------------------------------------------------
B|--------------------------------------------------------------------------
G|--------------------------------------------------------------------------
D|--------4--------4--------4-----4--6--------6--------6--------6-----6-----
A|--2--2-----2--2-----6--6-----6--------4--4-----4--4-----4--4-----4-----4--
E|--------------------------------------------------------------------------



E|------------------------------------------------------------------------------------------
B|------------------------------------------------------------------------------------------
G|--4--4--4--4--8--8--8--8--6--6--6--8\6-4--4--4--4--4--4-----------------------6--6--6--6--
D|---------------------------------------------------------4--4--4--4--4--4--4--------------
A|--2--2--2--2--6--6--6--6--4--4--4--6-4\2--2--2--2--2--2-----------------------4--4--4--4--
E|---------------------------------------------------------4--4--4--4--4--4--4--------------



E|--------------------------
B|--------------------------
G|--4--4--4--4--6--6--6--6--
D|--2--2--2--2--4--4--4--4--
A|--2--2--2--2--4--4--4--4--
E|--2--2--2--2--4--4--4--4--



E|----------------------------------------
B|----------------------------------------
G|--4----6----6----4----------------------
D|--4----4----6----2----------------------
A|--2----4----4----2----------------------
E|-------4----4----2----2--0--2--2--2--2--



E|-----------------------------------------------------------------------------------------
B|-----------------------------------------------------------------------------------------
G|-----------------------------------------------------------------------------------------
D|--------------------------------------------------------------------2--4-----------------
A|--2--0--2--0--2--0--2--------------------------------4--0--2--4--6-----------------------
E|-----------------------4--2--4--2--4--2--2--2--2--4-----------------------2--0--2--0--2--



E|-----------------------
B|-----------------------
G|-----------------------
D|-----------------------
A|-----------------------
E|--0--0--2--0--0--0--2--



E|--------------------------------------------
B|--------------------------------------------
G|-----------------8-----------------------8--
D|--------------------------------------------
A|-----------------6-----------------------6--
E|--2--2--2--2--2-----2--2--2--2--2--2--2-----



E|--------------------------------------------------------------------------
B|--------------------------------------------------------------------------
G|-----------------------------------------------4--6-----4--6-----4--6-----
D|--6--6--6--6--6-----------------------------------------------------------
A|--6--6--6--6--6--------------------------------2--4-----2--4-----2--4-----
E|--6--6--6--6--6--6--8--6--8--9--2--2--2--2--2--------2--------2--------4--



E|--------------------------------------------------------------------------------------------
B|--------------------------------------------------------------------------------------------
G|--------------------------------------------------------------------------------------------
D|--6--6--6--6--6-----------------------------------------------------------------------------
A|--6--6--6--6--6-----------------------------------------------------------------------------
E|--6--6--6--6--6--6--8--9--6--8--9--8--9--11--8--9--11--9--11--13--9--11--13--2--2--2--2--2--



E|--------------------------------------------------
B|--------------------------------------------------
G|--4--6-----4--6-----4--6--------------------------
D|--------------------------------------------------
A|--2--4-----2--4-----2--4--------------------------
E|--------2--------2--------6--6--6--6--6--6--6--6--



E|---------------------------------------------------------------------------------------
B|---------------------------------------------------------------------------------------
G|---------------------4--4--6--8-----------------8--9--8--------------------4--4--6--8--
D|--6------------------------------------------------------6-----------------2--2--4--6--
A|--6------------------2--2--4--6-----------------6--7--6--6-----------------2--2--4--6--
E|--6--4--6--9--8--11--------------2--2--2--2--2-----------6--4--6--9--8--4--------------
Guitar Tab Creator is intended to store guitar tab created through the tool. It currently does not support in-line text editing. Any text you place in here will be lost. If you need to comment on your tab, please use the "Tab Notes" section located below.