Make Believe Lead Guitar Part II

(/) Slide Up  (\) Slide Down  (h) Hammer On  (p) Pull Off  (b) Bend (r) Release (v) Vibrato

E|--18--14--------------------------------------14--18--14----------14--18--19--18--14------
B|----------16------------------------------16--------------16--------------------------16--
G|--------------15----------------------15----------------------15--------------------------
D|------------------16--------------16------------------------------------------------------
A|----------------------18--14--18----------------------------------------------------------
E|------------------------------------------------------------------------------------------



E|------14--18--21--18--14----------14--18--19--18--14----------
B|--------------------------16--------------------------16------
G|--15--------------------------15--------------------------15--
D|--------------------------------------------------------------
A|--------------------------------------------------------------
E|--------------------------------------------------------------



E|----------------------------------------------------------------------------------
B|----------------------------------------------------------------------------------
G|--13--13--16--13--13--16--13--16--18--16--16--18--13--13--16--11--13--13--16--13--
D|----------------------------------------------------------------------------------
A|----------------------------------------------------------------------------------
E|----------------------------------------------------------------------------------



E|------------------------------------------------------------------------------------------
B|------------------------------------------------------------------------------------------
G|--13--15--16--13--15--16--15--16--18--15--16--18--16--18--20--16--18--20--21--21--20--16--
D|------------------------------------------------------------------------------------------
A|------------------------------------------------------------------------------------------
E|------------------------------------------------------------------------------------------



E|--------------------------16--------------16--------------16--------------16-----------------
B|---------------------------------------------------------------------------------------------
G|--16--18--11--13--15--16------13--15--16------13--15--16------13--15--16------13--15--16-----
D|---------------------------------------------------------------------------------------------
A|---------------------------------------------------------------------------------------------
E|---------------------------------------------------------------------------------------------



E|--------------16------------------16------------------16----------18----------18------19--
B|------------------------------------------------------------------------------------------
G|--13--15--16------16--13--15--16------16--13--15--16------16--15------16--15------16------
D|------------------------------------------------------------------------------------------
A|------------------------------------------------------------------------------------------
E|------------------------------------------------------------------------------------------



E|--18--19--18----------
B|--------------19------
G|------------------18--
D|----------------------
A|----------------------
E|----------------------



E|--------------14------------------14--------------12------------------14---------------------
B|---------------------------------------------------------------------------------------------
G|--13--15--16------16--13--15--16------16--15--16------16--13--15--16------16--13--15--16-----
D|---------------------------------------------------------------------------------------------
A|---------------------------------------------------------------------------------------------
E|---------------------------------------------------------------------------------------------



E|--16--------------14------------------16------19--
B|--------------------------------------------------
G|------13--15--16------16--13--15--16------16------
D|--------------------------------------------------
A|--------------------------------------------------
E|--------------------------------------------------



E|----------------------11--16--11--------------11--16--19--16----------------------16--18--
B|------------------12--------------12------12------------------16--------------16----------
G|--------------13----------------------13--------------------------16------16--------------
D|----------13----------------------------------------------------------18------------------
A|--11--14----------------------------------------------------------------------------------
E|------------------------------------------------------------------------------------------



E|--19--16--18--19--21--18--19--21--21--21--19--19--18--19--16--19--14--19------19------19-----
B|--------------------------------------------------------------------------18------16---------
G|---------------------------------------------------------------------------------------------
D|---------------------------------------------------------------------------------------------
A|---------------------------------------------------------------------------------------------
E|---------------------------------------------------------------------------------------------



E|------------------15--17--18--17--15---------------------------------------------------------
B|--15--15--17--18----------------------18--17--15--17--18--17--15-----------------------------
G|------------------------------------------------------------------17--15--14-----------------
D|------------------------------------------------------------------------------15--14---------
A|--------------------------------------------------------------------------------------17-----
E|---------------------------------------------------------------------------------------------



E|----------------------------------
B|----------------------------------
G|--------------------------14--15--
D|--------------14--15--17----------
A|--13--15--17----------------------
E|----------------------------------
http://www.guitartabcreator.com
Guitar Tab Creator is intended to store guitar tab created through the tool. It currently does not support in-line text editing. Any text you place in here will be lost. If you need to comment on your tab, please use the "Tab Notes" section located below.