Make Believe Lead Guitar Part I

(/) Slide Up  (\) Slide Down  (h) Hammer On  (p) Pull Off  (b) Bend (r) Release (v) Vibrato

E|----------------------11--14--11------------------------------11--18--14------------------
B|------------------12--------------12----------------------12--------------16--------------
G|--------------11----------------------11--------------11----------------------15----------
D|----------13------------------------------13------13------------------------------16------
A|--11--14--------------------------------------14--------------------------------------18--
E|------------------------------------------------------------------------------------------



E|----------------------14--18--14----------16--13----------13------------------------------
B|------------------16--------------16--------------14----------14----------14--------------
G|--------------15----------------------15--------------13----------13----------13----------
D|----------16----------------------------------------------------------15----------15------
A|--14--18------------------------------------------------------------------------------16--
E|------------------------------------------------------------------------------------------



E|----------------------------------------------------------------------------------------
B|-------------------------------------19/21------21\19------19/21------21\19------19\18--
G|--------------------------11--13/16---------16---------16---------16---------16---------
D|--------------11--13--14----------------------------------------------------------------
A|--11--13--14----------------------------------------------------------------------------
E|----------------------------------------------------------------------------------------



E|--------------16--18--19--18--16------------------------------------------------------
B|--16--18--19----------------------19--18--16------------------------------------------
G|----------------------------------------------18--16--15--16--18--16--15--------------
D|--------------------------------------------------------------------------18--16--15--
A|--------------------------------------------------------------------------------------
E|--------------------------------------------------------------------------------------



E|------------------------------------------------------------------14--16--18--16--14-----
B|-----------------------------------------------------------------------------------------
G|--------------15--16--18--16--15----------------------15--16--18-------------------------
D|-----------------------------------------------------------------------------------------
A|--14--16--18----------------------18--16--14--16--18-------------------------------------
E|-----------------------------------------------------------------------------------------



E|----------------------14--16--18--21--21--21--19--19--19--18--18--18----------------------
B|----------------------------------------------------------------------19--19--19----------
G|--18--16--15--16--18--------------------------------------------------------------18--18--
D|------------------------------------------------------------------------------------------
A|------------------------------------------------------------------------------------------
E|------------------------------------------------------------------------------------------



E|------------------------------------------------------------------------------------------
B|------------------------------------------------------------------------------------------
G|--18--------------20--20--20--18--------------------------16--18--20--18--16--------------
D|------18--18--18------------------------------16--18--20----------------------20--18--16--
A|----------------------------------16--18--19----------------------------------------------
E|------------------------------------------------------------------------------------------



E|--------------------------
B|----------------------19--
G|----------16--18--20------
D|--18--20------------------
A|--------------------------
E|--------------------------



E|------------------------------------------------------------------
B|------------------------------------------------------------------
G|----------18----------18----------18----------16----------16--16--
D|------16----------16----------16----------16----------16----------
A|--14----------14----------14----------14----------14--------------
E|------------------------------------------------------------------



E|--------------------------------------------------------------------------
B|--------------------------------------------------------------------------
G|----------18----------18----------15----------15--------------------------
D|------16----------16----------16----------16------16--16--16--16--16--16--
A|--14----------14----------14----------14----------------------------------
E|--------------------------------------------------------------------------



E|------------------------------------------------------------------
B|------------------------------------------------------------------
G|----------18----------18----------15----------15----------15--15--
D|------16----------16----------16----------16----------16----------
A|--14----------14----------14----------14----------14--------------
E|------------------------------------------------------------------



E|----------14----------14--18--14------14------------------------------------------14---------
B|----------------------------------18------18--14--18--14--------------14--16--18------18-----
G|--15--16------15--16--------------------------------------16--15--16-------------------------
D|---------------------------------------------------------------------------------------------
A|---------------------------------------------------------------------------------------------
E|---------------------------------------------------------------------------------------------



E|------------------------------14--16--18--16--14--16--18--19--
B|--16--14------------------14----------------------------------
G|----------16--15--16--16--------------------------------------
D|--------------------------------------------------------------
A|--------------------------------------------------------------
E|--------------------------------------------------------------



E|--18--14--------------------------------------14--18--14--------------14--18--19--18--14--
B|----------16------------------------------16--------------16------16----------------------
G|--------------15----------------------15----------------------15--------------------------
D|------------------16--------------16------------------------------------------------------
A|----------------------18--14--18----------------------------------------------------------
E|------------------------------------------------------------------------------------------



E|--------------14--18--21--18----------
B|--16------16------------------19------
G|------15--------------------------20--
D|--------------------------------------
A|--------------------------------------
E|--------------------------------------



E|--18--14--------------------------------------14--18--14--------------------------14--
B|----------16------------------------------16--------------16------------------14------
G|--------------15----------------------15----------------------15--16--15--16----------
D|------------------16--------------16--------------------------------------------------
A|----------------------18--14--18------------------------------------------------------
E|--------------------------------------------------------------------------------------



E|--------------14----------14--16----------14--16----------14--18----------14--18--
B|----------14----------------------------------------------------------------------
G|--15--16----------15--16----------15--16----------15--16----------15--16----------
D|----------------------------------------------------------------------------------
A|----------------------------------------------------------------------------------
E|----------------------------------------------------------------------------------



E|--19--18----------
B|----------19------
G|--------------18--
D|------------------
A|------------------
E|------------------



E|--18--14--------------------------------------14--18--14--------------14--18--19--14--
B|----------16------------------------------16--------------16------16------------------
G|--------------15----------------------15----------------------15----------------------
D|------------------16--------------16--------------------------------------------------
A|----------------------18--14--18------------------------------------------------------
E|--------------------------------------------------------------------------------------



E|--------------14--18--
B|--16------16----------
G|------15--------------
D|----------------------
A|----------------------
E|----------------------
Guitar Tab Creator is intended to store guitar tab created through the tool. It currently does not support in-line text editing. Any text you place in here will be lost. If you need to comment on your tab, please use the "Tab Notes" section located below.