Here On the Ground Rhythm I

(/) Slide Up  (\) Slide Down  (h) Hammer On  (p) Pull Off  (b) Bend (r) Release (v) Vibrato

E|--------------------------------------------------------------------------------------------
B|--------------------------------------------------------------------------------------------
G|-----7-----6-----9-----7--6--7-----7-----6-----9-----7--6--7-----7-----6-----9-----7--6--7--
D|--------------------------------------------------------------------------------------------
A|-----5-----4-----7-----5--4--5-----5-----4-----7-----5--4--5-----5-----4-----7-----5--4--5--
E|--0-----0-----0-----0-----------0-----0-----0-----0-----------5-----5-----5-----5-----------



E|---------------------------------
B|---------------------------------
G|-----9-----7-----11-----9--6--7--
D|---------------------------------
A|-----7-----5-----9------7--4--5--
E|--7-----7-----7------7-----------



E|---------------------------------------------------------------------------------------------
B|---------------------------------------------------------------------------------------------
G|--7--7--7--7--------------7/11--9--------------7/11--9--------------7/11--9--7/9\7-----------
D|---------------------------------------------------------------------------------------------
A|--5--5--5--5--5--0-----0--5-9---7--5--0-----0--5-9---7--5--0-----0--5-9---7--5-7-5--5--0-----
E|--------------------5--------------------5--------------------5------------------------------



E|------------------------------------------------------------------
B|------------------------------------------------------------------
G|--------7/11--9--------------7/11--9--------------7/11--9--7/9-7--
D|------------------------------------------------------------------
A|-----0--5-9---7--5--0-----0--5-9---7--5--0-----0--5-9---7--5-7\5--
E|--5--------------------5--------------------5---------------------



E|--------------------------------------------------------------------------------------------
B|--------------------------------------------------------------------------------------------
G|-----------7-----7--------9/11-9/11-----------7-----7--------9/11-9\7-----------7-----7-----
D|--------------------------------------------------------------------------------------------
A|-----------5-----5--------7-9-\7-9------------5-----5--------7-9-\7-5-----------5-----5-----
E|--0--0--0-----0-----0--0-------------0--0--0-----0-----0--0------------5--5--5-----5--------



E|-------------------------------------------------------
B|-------------------------------------------------------
G|--------9/11-9/11--------------7\0---------------------
D|-------------------------------------------------------
A|--------7-9-\7-9---------------5-----------------------
E|--5--5-------------7--7--7--7-------4--4--4--4/7\4--4--



E|-------------------------------------------------------------------------------------------
B|--8/10-8--8/12--12\10--8--8/10-8--8/15--15--15\10--10--10--10/12---------------------------
G|-------------------------------------------------------------------------------------------
D|--5-7-\5--5-9---9--7---5--5-7-\5--5-12--12--12-7---7---7---7--9----------------------------
A|-------------------------------------------------------------------------------------------
E|------------------------------------------------------------------0--0----0--0----0--0-----



E|-------------------------------------------------
B|-------------------------------------------------
G|-------------------------------------------------
D|-------------------------------------------------
A|-------------------------------------------------
E|--0----0--0--0--0----0--0----0--0----0--0--0--0--



E|---------------------------------------------------
B|---------------------------------------------------
G|---------------------------------------------------
D|--0--0----0--0----0--0----0--0----0--0----0--0--0--
A|--0--0----0--0----0--0----0--0----0--0----0--0--0--
E|--0--0----0--0----0--0----0--0----0--0----0--0--0--



E|--------------------------------------------------------------------------------------------
B|--------------------------------------------------------------------------------------------
G|--7--7--7--7--7--7--7--7--6--6--6--7--7--7--9--9--7--7--7--7--7--7--7--7--9--9--9--6--6--6--
D|--------------------------------------------------5--5--5--5--5--5--5--5--7--7--7--4--4--4--
A|--5--5--5--5--5--5--5--5--4--4--4--5--5--5--7--7--5--5--5--5--5--5--5--5--7--7--7--4--4--4--
E|--------------------------------------------------5--5--5--5--5--5--5--5--7--7--7--4--4--4--



E|--------
B|--------
G|--6--6--
D|--4--4--
A|--4--4--
E|--4--4--
Guitar Tab Creator is intended to store guitar tab created through the tool. It currently does not support in-line text editing. Any text you place in here will be lost. If you need to comment on your tab, please use the "Tab Notes" section located below.