Here on the Ground Guitar Lead I

(/) Slide Up  (\) Slide Down  (h) Hammer On  (p) Pull Off  (b) Bend (r) Release (v) Vibrato

E|--17--14------------------------------14--17--14--------------14--15--14----------14---------
B|----------15----------------------15--------------15------15--------------15----------15-----
G|--------------14--------------14----------------------14----------------------14-------------
D|------------------16------16-----------------------------------------------------------------
A|----------------------17---------------------------------------------------------------------
E|---------------------------------------------------------------------------------------------



E|------------------------------------------------------------------------------------------
B|----------15------------------------------------------------------------------------------
G|--14----------14----------14--------------------------11----------11--12------11--12--14--
D|------16----------16----------16----------------------------------------------------------
A|----------------------17----------17--12--10--12--14------12--14----------14--------------
E|------------------------------------------------------------------------------------------



E|--------------10--------------10--12--10--------------10--12--10--------------10--
B|----------------------------------------------------------------------------------
G|--11--12--14------14--12--14--------------14--12--14--------------14--12--14------
D|----------------------------------------------------------------------------------
A|----------------------------------------------------------------------------------
E|----------------------------------------------------------------------------------



E|------------------------------------------------------------------------------------------
B|------------------------------------------------------------------------------------------
G|------------------------------------------------------------7---------7--9------7--9--11--
D|-----------5--------5--7-----5--7--9--5--7--9/11--7--9--11-----9--11--------11------------
A|--5--7--9-----7--9--------9---------------------------------------------------------------
E|------------------------------------------------------------------------------------------



E|--------------------------------------------14--12--10--------------14/17-14/17--14--12--10
B|------------8---------8--10------8--10--12--------------14--12--10-------------------------
G|--7--9--11-----9--11---------11------------------------------------------------------------
D|-------------------------------------------------------------------------------------------
A|-------------------------------------------------------------------------------------------
E|-------------------------------------------------------------------------------------------



E|--------------14/17--14--14--14--14--15--14----------------------------------------------
B|--14--12--10---------------------------------15------------------------------------------
G|-------------------------------------------------14--------------14/19--14\11/14--14-----
D|-----------------------------------------------------16----------------------------------
A|---------------------------------------------------------17--12-----------------------5--
E|-----------------------------------------------------------------------------------------



E|--------------5--9--5--------------
B|-----------7-----------7-----------
G|--------6-----------------6--------
D|-----7-----------------------7-----
A|--9-----------------------------9--
E|-----------------------------------



E|--------------------------------------------------------------------------------------------
B|--------------------------------------------------------------------------------------------
G|--------------12------------------11------11------------------12/14\12--------------11------
D|--------------------------------------------------------------------------------------------
A|--10--14--15------15--10--14--15------15------15--10--14--15------------10--14--15------15--
E|--------------------------------------------------------------------------------------------



E|----------------------------------------------------14------------------------------14------
B|----------------------------------------17--15--17------17--15--17------17--15--17------17--
G|--------------11------11--12/14\12--14------------------------------14----------------------
D|--------------------------------------------------------------------------------------------
A|--10--14--15------15------------------------------------------------------------------------
E|--------------------------------------------------------------------------------------------



E|--------------------------14--------------17--------------14--------------
B|--15--17------17--15--17------17--15--17------17--15--17------17--15--17--
G|----------14--------------------------------------------------------------
D|--------------------------------------------------------------------------
A|--------------------------------------------------------------------------
E|--------------------------------------------------------------------------



E|--------------------------------------------------------------------------------------
B|--------------------------------------------------------------------------------------
G|--------------12------------------11------11------------------------------11--12--14--
D|--------------------------------------------------------------10--12--14--------------
A|--10--14--15------15--10--14--15------15------15--10--12--14--------------------------
E|--------------------------------------------------------------------------------------



E|---------------------------------------------------------------------------------------------
B|---------------------------------------------------------------------------------------------
G|--------------12--------------------------------------11--12--14-----------------------------
D|------------------------------------------10--12--14--------------------------12--14--16-----
A|--10--14--15------10--14--15--10--12--14--------------------------12--14--15-----------------
E|---------------------------------------------------------------------------------------------



E|--------------
B|--------------
G|--12--14--16--
D|--------------
A|--------------
E|--------------



E|------------------------------------------------------------------------------------------
B|------------------------------------------------------------------------------------------
G|--------------------------11--12--14--12--11----------------------11--12--14--------------
D|--------------11--12--14----------------------14--12--11--12--14--------------12--14--16--
A|--10--12--14------------------------------------------------------------------------------
E|------------------------------------------------------------------------------------------



E|------------------------------------------------------------------------------------------
B|------------------------------------------------------------------------------14--15--17--
G|--12--14--16--------------14--16--18--16--14----------------------14--16--18--------------
D|--------------14--16--18----------------------18--16--14--16--18--------------------------
A|------------------------------------------------------------------------------------------
E|------------------------------------------------------------------------------------------



E|--------------------------14--15--17--15--14----------------------14--14--14--14--
B|--------------14--15--17----------------------17--15--14--15--17------------------
G|--14--16--18----------------------------------------------------------------------
D|----------------------------------------------------------------------------------
A|----------------------------------------------------------------------------------
E|----------------------------------------------------------------------------------



E|--------------------------------------------
B|--------5--7--10--12--5--7--10--5-----------
G|--6--7-----------------------------7--6--2--
D|--------------------------------------------
A|--------------------------------------------
E|--------------------------------------------



E|------------------------------------------------
B|--------5--7--10--12--14--15--17--14--12--10--7/
G|--6--7------------------------------------------
D|------------------------------------------------
A|------------------------------------------------
E|------------------------------------------------
http://www.guitartabcreator.com/
Guitar Tab Creator is intended to store guitar tab created through the tool. It currently does not support in-line text editing. Any text you place in here will be lost. If you need to comment on your tab, please use the "Tab Notes" section located below.