Call Me Maybe Cover Guitar I

D|----------------------------------------------------------------------------------------
A|----------------------------------------------------------------------------------------
F|----------------------------------------------------------------------------------------
C|--------------------------------------------------------------------2-2-2---------------
G|--------------------------------------------------------------------2-2-2---------------
C|--0-0-0-0-0-0---0-0-0-0-7-7-7-7-7\2--2-2-2---2-2-2-2-4-4-4-4-4------2-2-2---------------

|------------------------------------------
|------------------------------------------
|--11\7--13\9--11\7--13\9--9-9-9-11-11-11-9
|------------------------------------------
|------------------------------------------
|------------------------------------------

|--10-5-----14-10----17-14----19-16-------16-12-------12-7-----------------------
|-------7---------10-------15-------17----------12---------9---------------------
|--------------------------------------16----------13--------9-------------------
|--------------------------------------------------------------9-----------7-9-12
|----------------------------------------------------------------11-7-9-12-------
|--------------------------------------------------------------------------------

|--------------------------------------------------------------------------------------
|---------10-------------10-------------10---------10---------------10---------------10
|--7-9-11----11-9-7-9-11----11-9-7-9-11----9-11-13----13-11-9-11-13----13-11-9-11-13---
|--------------------------------------------------------------------------------------
|--------------------------------------------------------------------------------------
|--------------------------------------------------------------------------------------

|--------------------------------------14-16-17
|-----------------------------14-16-17---------
|--------------------13-14-16------------------
|-----------13-14-16---------------------------
|--12-14-16------------------------------------
|----------------------------------------------

|---------------------------------
|--------7-------7-------7-------7
|------6-------9-------6-------9--
|----7-------9-------7-------9----
|--5-------7-------5-------7------
|---------------------------------

|--------5-----5-7-------5-----5-7---5-7-9-5-7-9-10-10-9--------------------9-12-14-12-10
|--------------------------------------------------------10--------------10--------------
|--6-7-9---7-9-----6-7-9---7-9-----9------------------------9----------9-----------------
|-------------------------------------------------------------12-11-12-------------------
|----------------------------------------------------------------------------------------
|----------------------------------------------------------------------------------------

|--------12-10-------10------------
|--10----------10-------10---------
|-----11----------11-------11------
|-----------------------------12---
|--------------------------------12
|----------------------------------

|----------------------------------------------------------------------------10-13-16
|------------------------------------------------------------------------------------
|----------------------12~--9------------10-------10-13----10-13-16-10-13-16---------
|------------------8-7---------------------------------------------------------------
|--0-0-0-0-0-0-7-5-8-7-10---7---11-14-17----14-17-------17---------------------------
|--2-2-2-2-2-2-9-7-8-7---------------------------------------------------------------

|---------------------------------------------------------------
|---------------------------------------------------------------
|--------------------12\-9---------------------------------6-7-9
|----------8-7---------------------5-----5-7---5-7-9-5-7-9------
|--7-5-----8-7-------10--\7--5-7-9---7-9-----9------------------
|--9-7-0-0-8-7-0-0-0--------------------------------------------

|-------------------------------
|-----------10\-5---5-7-------10-5
|-----------9---4---4-6-------9--4
|--0-0-0----7---2---2-4-0-0---7--2
|--0-0-0----7---2---2-4-0-0---7--2
|--0-0-0----7---\2--2-4-0-0---7--2
Guitar Tab Creator is intended to store guitar tab created through the tool. It currently does not support in-line text editing. Any text you place in here will be lost. If you need to comment on your tab, please use the "Tab Notes" section located below.