Cake Inside Guitar I Tab

(/) Slide Up  (\) Slide Down  (h) Hammer On  (p) Pull Off  (b) Bend (r) Release (v) Vibrato

E|-----------------------0--
B|-----------0--------3-----
G|--------2--------2--------
D|-----2--------0-----------
A|--0-----------------------
E|--------------------------



E|----------------------------------------------------------------------------------
B|----------------------------------------------------------------------------------
G|--11--11----11--11--11--13--13----13--13--13--13--13--14--14----14----14--14--14--
D|----------------------------------------------------------------------------------
A|--9---9-----9---9---9---11--11----11--11--11--11--11--12--12----12----12--12--12--
E|----------------------------------------------------------------------------------



E|----------------------------------------------------------------------------------------
B|--10--10----10--10--10--12--12----12--12--12--12--12--12--14----14--14--17--17--17--17--
G|----------------------------------------------------------------------------------------
D|--7---7-----7---7---7---9---9-----9---9---9---9---9---9---11----11--11--14--14--14--14--
A|----------------------------------------------------------------------------------------
E|----------------------------------------------------------------------------------------



E|----------------------------------------------------------------------------------
B|----------------------------------------------------------------------------------
G|------------7---------7--9------7--9--11------------7---------7--9------7--9--11--
D|----------------------------------------------------------------------------------
A|--5--9--12-----9--12--------12------------5--9--12-----9--12--------12------------
E|----------------------------------------------------------------------------------



E|------------------------------------------------------------------------------------
B|------------------------------------------------------------------------------------
G|--11--12--14--11--12--14--12--14--16--12--14--16--18--16--14--13--------------------
D|------------------------------------------------------------------14--11--9--7/9\7--
A|------------------------------------------------------------------------------------
E|------------------------------------------------------------------------------------




E|------------------------------------------------------------------------------------------
B|--10--10--10--10----10--10--10--10----10--10--10--10----14--14--14--12----14--14--14--12--
G|------------------------------------------------------------------------------------------
D|--7---7---7---7-----7---7---7---7-----7---7---7---7-----11--11--11--9-----11--11--11--9---
A|------------------------------------------------------------------------------------------
E|------------------------------------------------------------------------------------------



E|----------------
B|--9--10--9--10--
G|----------------
D|--6--7---6--7---
A|----------------



E|-------------------------------------------------------------------
B|--19\14--14/17\12--10/12--7----19\14--14/17--12--10/12--7--7/10\5--
G|-------------------------------------------------------------------
D|-------------------------------------------------------------------
A|-------------------------------------------------------------------
E|-------------------------------------------------------------------



E|------------------10--14--10--------------10--14/19--14----------------------------------
B|--------------12--------------12------12-----------------15------------------------------
G|----------11----------------------11-------------------------16--------------------------
D|------12---------------------------------------------------------16------------------14--
A|--14-----------------------------------------------------------------17--14--16--17------
E|-----------------------------------------------------------------------------------------



E|------------------------------14--17/19--21--21--21--21---------19---------17---------
B|------------------14--15--17-----------------------------19\17------17/15------15\12--
G|----------14--16----------------------------------------------------------------------
D|--16--17------------------------------------------------------------------------------
A|--------------------------------------------------------------------------------------
E|--------------------------------------------------------------------------------------



E|--14---------12------------------------------------------------------------
B|------12\10----------------------------------------------------10--12--14--
G|----------------------------9--11--12--------------11--12--14--------------
D|-----------------9--11--12-------------11--12--14--------------------------
A|---------------------------------------------------------------------------
E|---------------------------------------------------------------------------



E|--------------------------------------12--14--15--------------14--15--17--------------15--
B|--------------------------12--14--15--------------14--15--17--------------15--17--19------
G|--------------12--14--16------------------------------------------------------------------
D|--12--14--16------------------------------------------------------------------------------
A|------------------------------------------------------------------------------------------
E|------------------------------------------------------------------------------------------



E|--17--19--17/19--
B|-----------------
G|-----------------
D|-----------------
A|-----------------
E|-----------------
http://www.guitartabcreator.com

Guitar Tab Creator is intended to store guitar tab created through the tool. It currently does not support in-line text editing. Any text you place in here will be lost. If you need to comment on your tab, please use the "Tab Notes" section located below.