Butt Snuffs Rhythm Guitar Chords

(/) Slide Up  (\) Slide Down  (h) Hammer On  (p) Pull Off  (b) Bend (r) Release (v) Vibrato

E|--------------
B|--------------
G|--5--5--5--5--
D|--5--5--5--5--
A|--3--3--3--3--
E|--------------



E|---------------------------------------------------------------------------------------------
B|---------------------------------------------------------------------------------------------
G|--7--7--7--7--7--7--7--7--10--10--10--10--10--10--10--10--10--------------------7------------
D|--7--7--7--7--7--7--7--7--10--10--10--10--10--10--10--10--10---------------------------------
A|--5--5--5--5--5--5--5--5--8---8---8---8---8---8---8---8---8---------------------5------------
E|--------------------------------------------------------------0--0--0--0--0--0-----0--0--0---



E|------------------------------------------------------------------------------------------
B|------------------------------------------------------------------------------------------
G|-----------10--5--5--5--5--5--5--5--5--5--------------------------------------------------
D|---------------5--5--5--5--5--5--5--5--5--------------------------------------------------
A|-----------8---3--3--3--3--3--3--3--3--3--3--3--3--3--3--3--3--3--3--3--3-----------------
E|--0--0--0---------------------------------5--5--5--5--5--5--5--5--5--5--5--5--5--5--5-----



E|--------------
B|--------------
G|--------------
D|--------------
A|--------------
E|--3--3--3--3--



E|------------------------------
B|------------------------------
G|--12--12--12--12--7--7--7--7--
D|--12--12--12--12--7--7--7--7--
A|--10--10--10--10--5--5--5--5--
E|------------------------------
http://www.guitartabcreator.com http://www.guitartabcreator.com
Guitar Tab Creator is intended to store guitar tab created through the tool. It currently does not support in-line text editing. Any text you place in here will be lost. If you need to comment on your tab, please use the "Tab Notes" section located below.