Butt Snuffs Lead Guitar I

(/) Slide Up  (\) Slide Down  (h) Hammer On  (p) Pull Off  (b) Bend (r) Release (v) Vibrato

(/) Slide Up (\) Slide Down (h) Hammer On (p) Pull Off (b) Bend (r) Release (v) Vibrato

E|-10-5---------10-5---13-10----17-13--------------------17-13----------13-17-13-15-12---------
B|------6------------6-------10-------15-----------------------15----15----------------13------
G|---------------------------------------14-----------------------14----------------------12---
D|------------------------------------------15-------------------------------------------------
A|---------------------------------------------------------------------------------------------
E|--------0-0-0--------------------------------0-0-0-0-0---------------------------------------



E|-------------------------12-13-12----------------12-15-12---------
B|-13-15-13-------------13----------13----------13----------13------
G|----------12-12-10-14----------------14-10-14----------------14-7-
D|------------------------------------------------------------------
A|----------------------------------------------------------------5-
E|------------------------------------------------------------------



E|--------------------------------------------------------------------------------
B|--------------------------------------------------------------------------------
G|-7-9-7-------10-9-7----7-9-10---------------------------------------------------
D|--------------------11--------------------------------5-5-5-------------5-5-5---
A|-5-7-5--------------------------------------3---3-3-3-------7-5-5-3-3-3-------7-
E|-------0-0-0------------------3-3-3-3-7-7-7---7---------------------------------



E|---------------------------------------------------------------------------------
B|---------------------------------------------------------------------------------
G|------------------------------------------------------------5------5-9----5-9-12-
D|-----------5-5-5-----------5-5-5---------------5-5-5-----------------------------
A|-0-3-3-3-3-------0-3-3-3-3-------7-5-5-3-3-3-3-------3-7-10---7-10-----10--------
E|-0---------------0---------------------------------------------------------------



E|------------------------------------------------------------------------------------
B|------------------------------------------------------------------------------------
G|-7-9-7-------10-9-7----7-9-10-------------------------------------------------------
D|--------------------11----------------------------------5-5-5---------------5-5-5---
A|-5-7-5------------------------------------3-3---3-3-3-3-------7-5-5-3-3-3-3-------0-
E|-------0-0-0------------------3-3-3-3-7-7-----7-----------------------------------0-



E|---------------------------------------------------------------------------------
B|---------------------------------------------------------------------------------
G|------------------------------------------------------------5------5-9----5-9-12-
D|---------5-5-5-----------5-5-5---------------5-5-5-------------------------------
A|-3-3-3-3-------0-3-3-3-3-------7-5-5-3-3-3-3-------0-3-7-10---7-10-----10--------
E|---------------0-----------------------------------0-----------------------------



E|---------------------------------
B|---------------------------------
G|---------9-------9-12----9-12-17-
D|---------------------------------
A|-7-10-15---10-15------15---------
E|---------------------------------



E|-17-13----13----------------------------------13-17-13----13---------------------------------
B|-------15----15----15----------------------15----------15----15----15------------------------
G|----------------14----14----14----------14----------------------14----14----14----------14---
D|-------------------------15----15-12-15----------------------------------15----15-12-15------
A|---------------------------------------------------------------------------------------------
E|---------------------------------------------------------------------------------------------



E|----13-18-17-13----17-13-------13----------------------18-17-13----17-13-------------------
B|-15-------------15-------15-13----15-13----------13-15----------15-------15-13----------13-
G|----------------------------------------15-14-15-------------------------------15-14-15----
D|-------------------------------------------------------------------------------------------
A|-------------------------------------------------------------------------------------------
E|-------------------------------------------------------------------------------------------



E|----15-13-12----13-12----------------------12-------15-13-12----13-12----------------------
B|-15----------13-------13----13-15-13----13----13-------------13-------13----13-15-13----13-
G|-------------------------12----------12----------12----------------------12----------12----
D|-------------------------------------------------------------------------------------------
A|-------------------------------------------------------------------------------------------
E|-------------------------------------------------------------------------------------------



E|-12-------15-10----------10-13-10----------10-11-10----------------------------10-11-10----
B|----13----------11----11----------11----11----------11----------------------11----------11-
G|-------12----------12----------------12----------------12----------------12----------------
D|----------------------------------------------------------12----------12-------------------
A|-------------------------------------------------------------13-10-13----------------------
E|-------------------------------------------------------------------------------------------



E|-------10-13-10-15-10----------10-13-10----------10-11-10----------------------------10-11---
B|----11----------------11----11----------11----11----------11----------------------11---------
G|-12----------------------12----------------12----------------12----------------12------------
D|----------------------------------------------------------------12----------12---------------
A|-------------------------------------------------------------------13-10-13------------------
E|---------------------------------------------------------------------------------------------



E|-10----------10-13-10-------------------------------------------10-5-----13-10-------17-13---
B|----11----11--------------------------------------------9------------6---------10------------
G|-------12-------------10-7--------------------7-9-10-12---12-10--------7----------10---------
D|---------------------------------------------------------------------------------------------
A|----------------------8--5-5-3---------5-8-12------------------------------------------------
E|---------------------------7-5-3-3-3-0-------------------------------------------------------



E|--------------------------------------------12----------------------13----------------------
B|--------------------------------------------------------------------------------------------
G|-10-7-10-7-14-10----------12-------12-14-15----15-14-15-12-15-14-15----15-14-15-12-15-14-15-
D|--------------------------------------------------------------------------------------------
A|-8--5-8--5-12-8--10-13-17----13-17----------------------------------------------------------
E|--------------------------------------------------------------------------------------------



E|-------------------------------------------------10-5-----13-10-------17-13-------21-17----
B|----------------------15----------------------15------6---------10----------15----------18-
G|-10-12-14-10-12-14-10----10-12-14-10-12-14-10-----------7----------10----------14----------
D|-------------------------------------------------------------------------------------------
A|-------------------------------------------------------------------------------------------
E|-------------------------------------------------------------------------------------------



E|-19-----------------------------------------------------------------------------------------
B|--------------------------------------------------------------------------------------------
G|----10-12-14-12-10-10-10-12-14-12-10-10-9-10-9-5-5-5-5-5-5--------3------3-6----3-6-9-3-6-9-
D|--------------------------------------------------------------------------------------------
A|----8--10-12-10-8--8--8--10-12-10-8--8--7-8--7-3-3-3-3-3-3-4-7-10---7-10-----10-------------
E|--------------------------------------------------------------------------------------------



E|-3-6-9-6-3---------------------------------------------------------------------------------
B|-------------------------------------------------------------------------------------------
G|-----------9-6-3---------------------------------------------------------------------------
D|---------------------------7---------------7------------------------------10---------------
A|-----------------10-5-8-11---11-8-5-5-8-11---11-8-5---------------8-11-12----12-11-8-11-12-
E|----------------------------------------------------0-0-0-0-0-0-0--------------------------



E|-------------------------------------------------------------------------------------------
B|-------------9-----------------------------------------------------------------------------
G|-------10-12---12-10-----------------------------------------------------------------------
D|-10-12---------------12--------7---------------7---------------------------------------7---
A|------------------------5-8-11---11-8-5-5-8-11---11-8-5---------------5-3-------5-8-11-----
E|--------------------------------------------------------0-0-0-0-0-0-0-7-5-3/5\3------------



E|---------------------------------------------------------------------------------------------
B|---------------------------------------------------------------------------9-----------------
G|---------------------------------------------------------------------10-12---12-10-----------
D|---------------7------------------------------10---------------10-12---------------12--------
A|-11-8-5-5-8-11---11-8-5---------------8-11-12----12-11-8-11-12------------------------5-8-11-
E|------------------------0-0-0-0-0-0-0--------------------------------------------------------



E|--------------------------------------------------------------------------------------------
B|--------------------------------------------------------------------------------8\8-11\8-15-
G|----------------------------------------------------------5-7-5---------5-7-----------------
D|-7---------------7------------------------------------5-8-------8-5-5-8-----8-5-5-5/8--5/12-
A|---11-8-5-5-8-11---11-8-5---------------1-1-1-1-1-1-1---------------------------------------
E|--------------------------0-0-0-0-0-0-0-2-2-2-2-2-2-2---------------------------------------



E|-----------------------------------------------------------------------------------------
B|-----------------------------------------------------------------------------------------
G|---------------------------------------------7-9-7-9-10-10-10-10-10-10-10-10-10-10-10-10-
D|-----5-7-5---------5-7-5-----------5-7-5-------------------------------------------------
A|-5-8-------8-5-5-8-------8-5-0-5-8-------8-5-5-7-5-7-8--8--8--8--8--8--8--8--8--8--8--8--
E|-----------------------------0-----------------------------------------------------------



E|---------------------8-3-----------------------------
B|-----------------5-------5---------------------------
G|---------5---------5-------5-4-5-7-4-5-7-5-7-9-5-7-9-
D|---5-------5-----------------------------------------
A|-3---7-3-----7-3-------------------------------------
E|-----------------------------------------------------
http://www.guitartabcreator.com http://www.guitartabcreator.com
Guitar Tab Creator is intended to store guitar tab created through the tool. It currently does not support in-line text editing. Any text you place in here will be lost. If you need to comment on your tab, please use the "Tab Notes" section located below.