Butt Snuffs

(/) Slide Up  (\) Slide Down  (h) Hammer On  (p) Pull Off  (b) Bend (r) Release (v) Vibrato


E|--10--5--------------10--5-----13--10------17--13-----------------------------17--13-------------
B|---------6------------------6----------10----------15---------------------------------15---------
G|-------------------------------------------------------14---------------------------------14-----
D|-----------------------------------------------------------15------------------------------------
A|-------------------------------------------------------------------------------------------------
E|------------0--0--0--------------------------------------------0--0--0--0--0---------------------



E|------13--17--13--15--12----------------------------------------12h13p12----------------------12--
B|--15----------------------13------13/15\13------------------13------------13--------------13------
G|------------------------------12------------12--12--10--14--------------------14--10--14----------
D|--------------------------------------------------------------------------------------------------
A|--------------------------------------------------------------------------------------------------
E|--------------------------------------------------------------------------------------------------



E|--15p12----------
B|---------13------
G|-------------14--
D|-----------------
A|-----------------
E|-----------------
http://www.guitartabcreator.com
Guitar Tab Creator is intended to store guitar tab created through the tool. It currently does not support in-line text editing. Any text you place in here will be lost. If you need to comment on your tab, please use the "Tab Notes" section located below.