Rosovadolina

(/) Slide Up  (\) Slide Down  (h) Hammer On  (p) Pull Off  (b) Bend (r) Release (v) Vibrato


E|-----------------------------------------
B|-----------------------------------------
G|-----------------------------------------
D|-----------------------------------------
A|--0-----7--8--8--6--7--0-----7--8--6--7--
E|-----7--------------------7--------------


E|---------------------------------
B|---------------------------------
G|--0--------0---------------------
D|-----7--8------------7--------0--
A|--------------8--10-----8--7-----
E|---------------------------------
http://www.guitartabcreator.com
Guitar Tab Creator is intended to store guitar tab created through the tool. It currently does not support in-line text editing. Any text you place in here will be lost. If you need to comment on your tab, please use the "Tab Notes" section located below.