Sperad Your Love (F)

(/) Slide Up  (\) Slide Down  (h) Hammer On  (p) Pull Off  (b) Bend (r) Release (v) Vibrato


E|----------|-----------------|--13--11----------|--13--13--11----------|--
B|----------|-----------------|------------------|----------------------|--
G|--3b3b3b3b|--3b3b4r3--1-----|----------13--13--|--------------13--13--|--
D|----------|--------------3--|------------------|----------------------|--
A|----------|-----------------|------------------|----------------------|--
E|----------|-----------------|------------------|----------------------|--



E|----------------|--
B|--9--9--7-------|--
G|--9--9--7b8r7b8r|--
D|----------------|--
A|----------------|--
E|----------------|--
http://www.guitartabcreator.com
Guitar Tab Creator is intended to store guitar tab created through the tool. It currently does not support in-line text editing. Any text you place in here will be lost. If you need to comment on your tab, please use the "Tab Notes" section located below.