Portions For Foxes Bridge

(/) Slide Up  (\) Slide Down  (h) Hammer On  (p) Pull Off  (b) Bend (r) Release (v) Vibrato

E|-7-7-7-7-9-9-9-9-10-10-10-10-10-10-10-10-|-9-9-9-9-9-9-9-9-15-15-15-15-14-14-14-14-|-
B|-----------------------------------------|-----------------------------------------|-
G|-----------------------------------------|-----------------------------------------|-
D|-----------------------------------------|-----------------------------------------|-
A|-----------------------------------------|-----------------------------------------|-
E|-----------------------------------------|-----------------------------------------|-



E|-10-10-10-10-10-10-10-10-9-9-9-9-9-9-9-9-|-10-10-10-10-10-10-10-10-12-12-12-10-10-10-9-9-|-
B|-----------------------------------------|-----------------------------------------------|-
G|-----------------------------------------|-----------------------------------------------|-
D|-----------------------------------------|-----------------------------------------------|-
A|-----------------------------------------|-----------------------------------------------|-
E|-----------------------------------------|-----------------------------------------------|-



E|-7-7-7-7-9-9-9-9-10-10-10-10-12-12-12-12-|-5-5-5-5-9-9-9-9-10-10-10-10-12-12-12-12-|-
B|-----------------------------------------|-----------------------------------------|-
G|-----------------------------------------|-----------------------------------------|-
D|-----------------------------------------|-----------------------------------------|-
A|-----------------------------------------|-----------------------------------------|-
E|-----------------------------------------|-----------------------------------------|-



E|--14--12--14--12--14--12\10--9--10--10--10--10--12--12--12--12--|--14--14--14--14--14--14--14--14--14----12----9--|--
B|--15--15--15--15--15------------12--12--12--12--14--14--14--14--|--15--15--15--15--15--15--15--15-----------------|--
G|----------------------------------------------------------------|-------------------------------------------------|--
D|----------------------------------------------------------------|-------------------------------------------------|--
A|----------------------------------------------------------------|-------------------------------------------------|--
E|----------------------------------------------------------------|-------------------------------------------------|--
http://www.guitartabcreator.com
Guitar Tab Creator is intended to store guitar tab created through the tool. It currently does not support in-line text editing. Any text you place in here will be lost. If you need to comment on your tab, please use the "Tab Notes" section located below.