Hard to handle solo (B)

(/) Slide Up  (\) Slide Down  (h) Hammer On  (p) Pull Off  (b) Bend (r) Release (v) Vibrato


E|-------------------------------------|-------------------------------|-----
B|--9b--9b--9b--9b9r7-----7------------|-------------------------------|-----
G|---------------------9-----10--9--7--|--9-----7h8--------------------|-----
D|-------------------------------------|-----9-------9--9--9-----------|-----
A|-------------------------------------|--------------------------7--9/|-----
E|-------------------------------------|-------------------------------|-----



E|------------------------------------|----------------------------------|--
B|------------------------------------|-------------------------------9--|--
G|------------------------------------|----------------------------------|--
D|--9--9--12p9------9--9--------------|--9----12----11p9------9--0-------|--
A|--------------11------------9/11----|-------------------11-------------|--
E|------------------------------------|----------------------------------|--



E|------------------------------------|-----------------------------------|--
B|--9b----9p7--10b--10----------------|--12--14p12------15--12------12----|--
G|----------------------9/13----------|-------------13----------14--------|--
D|------------------------------------|-----------------------------------|--
A|------------------------------------|-----------------------------------|--
E|------------------------------------|-----------------------------------|--



E|---------17------17--17------17-----|------17---------17-------------17b|--
B|--17b--------19----------19------17b|--17------17b17------17b17--15-----|--
G|------------------------------------|-----------------------------------|--
D|------------------------------------|-----------------------------------|--
A|------------------------------------|-----------------------------------|--
E|------------------------------------|-----------------------------------|--
http://www.guitartabcreator.com
Guitar Tab Creator is intended to store guitar tab created through the tool. It currently does not support in-line text editing. Any text you place in here will be lost. If you need to comment on your tab, please use the "Tab Notes" section located below.