Blondie - One way or another (E)

(/) Slide Up  (\) Slide Down  (h) Hammer On  (p) Pull Off  (b) Bend (r) Release (v) Vibrato


E|------------------------------|----------------------------
B|------------------------------|----------------------------
G|--6--4----------6--4----------|--------6v----6/8--6--4-----
D|--------6p4-----------6p4-----|--7v---------------------6--
A|-------------6-------------6--|----------------------------
E|------------------------------|----------------------------



E|----------------------------|-------------------------|--
B|----------------------------|-------------------------|--
G|--------6v----6/8--6--4-----|-----4--6----------------|--
D|--7v---------------------6--|--7--------4v----6v------|--
A|----------------------------|-------------------------|--
E|----------------------------|-------------------------|--



E|-----------------------------------------------------------------------|--
B|--11h12--12--11------11h12--12--11------11h12--12--11------------------|--
G|-----------------11-----------------11-----------------11--8----8--10--|--
D|-----------------------------------------------------------------------|--
A|-----------------------------------------------------------------------|--
E|-----------------------------------------------------------------------|--



E|-------------------------------------------------------------
B|--12--12--12--11------11-------------12--12--12--11--11--12--
G|--13--13--13--11--11--11--8--11--13--13--13--13--11------13--
D|------------------13---------------------------------13------
A|-------------------------------------------------------------
E|-------------------------------------------------------------



E|------------------------------------------|--
B|--11--12--12--11--12--12--12--11--12--12--|--
G|--10--11--11--10--11--11--11--10--11--11--|--
D|------------------------------------------|--
A|------------------------------------------|--
E|------------------------------------------|--



E|--------------------------------------------------------------
B|--13--14--14--14--13--14--14--14--14--14--14------------------
G|--12--13--13--13--12--13--13--13--13--13--13--13--14--15--16--
D|--------------------------------------------------------------
A|--------------------------------------------------------------
E|--------------------------------------------------------------
http://www.guitartabcreator.com
Guitar Tab Creator is intended to store guitar tab created through the tool. It currently does not support in-line text editing. Any text you place in here will be lost. If you need to comment on your tab, please use the "Tab Notes" section located below.