Blondie Call me Solo (low)

(/) Slide Up  (\) Slide Down  (h) Hammer On  (p) Pull Off  (b) Bend (r) Release (v) Vibrato


E|--------------------------------------|----------------------------|--------------------------|-----
B|--------------------------------------|----------------------------|--------------------------|-----
G|--------------------------------------|----------------------------|--------------------------|-----
D|--------------------------------------|--9--------------------7--5\|--4v----4--7--5--4--7--5--|-----
A|--------5-----------------5-----5--7--|----------------------------|--------------------------|-----
E|--5--7-----7--5--7--5--7-----7--------|----------------------------|--------------------------|-----



E|-----------------|--------------------------------------|-----------------|----------------|-----
B|-----------------|--------------------------------------|-----------------|--7----7--8--7--|-----
G|-----------------|--------------------------------------|-----------------|----------------|-----
D|--4--------------|--------------------------------------|--9--------7--5--|----------------|-----
A|---------4-------|--------5-----------------5-----5--7--|-----------------|----------------|-----
E|------------7----|--5--7-----7--5--7--5--7-----7--------|-----------------|----------------|-----



E|-------------|--------------------------------------|--------------------|-----------------------|--
B|--7----------|--------------------------------------|--10------10--8--6--|--6--------------------|--
G|-----7-------|--------------------------------------|--------------------|-----2--3--5--2--3--5--|--
D|--------9----|--------------------------------------|--------------------|-----------------------|--
A|-------------|--------5-----------------5-----5--7--|--------------------|-----------------------|--
E|-------------|--5--7-----7--5--7--5--7-----7--------|--------------------|-----------------------|--



E|-----------------|------|------------|---------|------------------|--------|--
B|-----------------|------|----------1h|--3----5/|--6----5--6--3----|------5h|--
G|--5--------------|------|-----0h2----|---------|------------------|--------|--
D|-----5--3\2------|------|--3---------|---------|------------------|--------|--
A|-----------------|------|------------|---------|------------------|--------|--
E|-----------------|------|------------|---------|------------------|--------|--



E|-------------------|------------------------|-----
B|--6----5h6\3-------|------------------------|-----
G|----------------5--|--4----4--5--7--4--5--7/|--9--
D|-------------------|------------------------|-----
A|-------------------|------------------------|-----
E|-------------------|------------------------|-----
http://www.guitartabcreator.com
Guitar Tab Creator is intended to store guitar tab created through the tool. It currently does not support in-line text editing. Any text you place in here will be lost. If you need to comment on your tab, please use the "Tab Notes" section located below.