"The Cave" by Mumford and Sons (Tuning: Open D (DADF#AD) Capo: 2nd Fret)

(/) Slide Up  (\) Slide Down  (h) Hammer On  (p) Pull Off  (b) Bend (r) Release (v) Vibrato
E|----------------------------------------------------
B|----------------------2-----------2-----------2-----
G|--4/6--4--2--------2-----2-----2-----2-----2-----2--
D|-------------2--4-----------4-----------2-----------
A|----------------------------------------------------
E|----------------------------------------------------

x3

E|-----0-0-----------------------
B|-----0-0-----------------------
G|-----1-0-----------------------
D|-----2-0-----------------------
A|-----0-0-----------------------
E|-----0-0-----------------------



E|--7--7--7--7--0--0--0--0--7--7--7--7--0--0--0--0--7--7--0--0--9--9--9--9--
B|--7--7--7--7--0--0--0--0--7--7--7--7--0--0--0--0--7--7--0--0--9--9--9--9--
G|--7--7--7--7--0--0--0--0--7--7--7--7--0--0--0--0--7--7--0--0--9--9--9--9--
D|--7--7--7--7--0--0--0--0--7--7--7--7--0--0--0--0--7--7--0--0--9--9--9--9--
A|--7--7--7--7--0--0--0--0--7--7--7--7--0--0--0--0--7--7--0--0--9--9--9--9--
E|--7--7--7--7--0--0--0--0--7--7--7--7--0--0--0--0--7--7--0--0--9--9--9--9--

E|--11--11--11--11--7--7--2--2--
B|--11--11--11--11--7--7--2--2--
G|--11--11--11--11--7--7--2--2--
D|--11--11--11--11--7--7--2--2--
A|--11--11--11--11--7--7--2--2--
E|--11--11--11--11--7--7--2--2--
x2

E|--7--7--9--9--9--9--9--9--
B|--7--7--9--9--9--9--9--9--
G|--7--7--9--9--9--9--9--9--
D|--7--7--9--9--9--9--9--9--
A|--7--7--9--9--9--9--9--9--
E|--7--7--9--9--9--9--9--9--




R ALL Throughout song



http://www.guitartabcreator.com
Guitar Tab Creator is intended to store guitar tab created through the tool. It currently does not support in-line text editing. Any text you place in here will be lost. If you need to comment on your tab, please use the "Tab Notes" section located below.