The Choice

(/) Slide Up  (\) Slide Down  (h) Hammer On  (p) Pull Off  (b) Bend (r) Release (v) Vibrato

E|--------------------------|-------------------------------------------------------
B|--------------------------|-------------------------------------------------------
G|--------------------------|-------------------------------------------------------
D|---5---2---4--5-2-4---0-2-|---------6-7-9------10---------6---6-7-7h9-7---------6-
A|-7---3---5----7-3-5-2---3-|---7---7---------12----7h9---7-----7---------7h9---7---
E|--------------------------|-0---0---------0-----------0-----0---------------0-----



E|-------------------------------------------------------|----------------------------------------
B|-------------------------------------------------------|----------------------------------------
G|-------------------------2--2--------------------------|----------------------------------------
D|-------4-----4--------2--------------6-----6-----4-----|-----5-----2-----4--5--2--4-------0--2--
A|--2/5-----------5--3--------------7-----7-----7-----6--|--7-----3-----5-----7--3--5----2-----3--
E|----------0--------------------0-----------------------|----------------------------------------
http://www.guitartabcreator.com
Guitar Tab Creator is intended to store guitar tab created through the tool. It currently does not support in-line text editing. Any text you place in here will be lost. If you need to comment on your tab, please use the "Tab Notes" section located below.