Descending Chords

(/) Slide Up  (\) Slide Down  (h) Hammer On  (p) Pull Off  (b) Bend (r) Release (v) Vibrato


E|---------------
B|---------------
G|--9--8--9--9---
D|--9--9--9--11--
A|--7--6--x--0---
E|--0--0--9--x---



E|----------------------------------------------------------------
B|-----------9--------------9--------------9----------------------
G|-----9--------9-----9--------9-----9--------9-----9-----8h9--9--
D|----------------------------------------------------------------
A|--7-----7--------6-----6-----------------------0-----0----------
E|--------------------------------9-----9-------------------------
http://www.guitartabcreator.com
Guitar Tab Creator is intended to store guitar tab created through the tool. It currently does not support in-line text editing. Any text you place in here will be lost. If you need to comment on your tab, please use the "Tab Notes" section located below.