Space walk

(/) Slide Up  (\) Slide Down  (h) Hammer On  (p) Pull Off  (b) Bend (r) Release (v) Vibrato

E|--------------------------------------------------16------15------16------15------
B|------------------------------------------------------15------16------15------16--
G|------20------19------18------17------16------15----------------------------------
D|--21------20------19------18------17------16--------------------------------------
A|----------------------------------------------------------------------------------
E|----------------------------------------------------------------------------------



E|--16------15------21--
B|------15------16------
G|----------------------
D|----------------------
A|----------------------
E|----------------------
http://www.guitartabcreator.com
Guitar Tab Creator is intended to store guitar tab created through the tool. It currently does not support in-line text editing. Any text you place in here will be lost. If you need to comment on your tab, please use the "Tab Notes" section located below.