Chimney Sweep

(/) Slide Up  (\) Slide Down  (h) Hammer On  (p) Pull Off  (b) Bend (r) Release (v) Vibrato


E|-----------------------------------------------------------------------
B|-----------------------------------------------------------------------
G|-----------------------------------------------------------------------
D|-----4--4--4-----4--4--4--4--5--4--2--2--2--4--2--0--2--0-----------4--
A|--2-----------2--------------------------------------------4--3--4-----
E|-----------------------------------------------------------------------



E|-----------------------------------------------------------------------
B|-----------------------------------------------------------------------
G|-----------------------------------------------------------------------
D|-----4--4--4-----4--4--4--4--5--4--2--2--2--4--2--0--2--0-----0--------
A|--2-----------2--------------------------------------------4-----4--2--
E|-----------------------------------------------------------------------



E|--------------------------------------
B|--------------------------------------
G|--4--4--2--0--4-----------3--4--6--4--
D|-----------------4--4--4--------------
A|--------------------------------------
E|--------------------------------------
http://www.guitartabcreator.com
Guitar Tab Creator is intended to store guitar tab created through the tool. It currently does not support in-line text editing. Any text you place in here will be lost. If you need to comment on your tab, please use the "Tab Notes" section located below.