Song

(/) Slide Up  (\) Slide Down  (h) Hammer On  (p) Pull Off  (b) Bend (r) Release (v) Vibrato
E|---------10---------14---------10--12--10---------10--9---10---------9--8---6--4--2--1--
B|-----11---------12---------11------13--11-----11------10--11-----10-----10--8--6--4--3--
G|--0----------0----------0----------14--12--0----------9---10--0---------9---7--5--3--2--
D|----------------------------------------------------------------------------------------
A|----------------------------------------------------------------------------------------
E|----------------------------------------------------------------------------------------



E|--------------
B|--------------
G|--------2--0--
D|-----0--------
A|--2-----------
E|--------------



E|---------10---------14--15--14--12h14---------------------12--14--12------
B|-----11---------12---------------------12--15--14---------13----------13--
G|--0----------0-------------------------------------12\11--14--------------
D|--------------------------------------------------------------------------
A|--------------------------------------------------------------------------
E|--------------------------------------------------------------------------



E|--10--11--10-------------------------
B|--11--------------11/13--11--13--10--
G|--12----------12--12-14--12--14--11--
D|-------------------------------------
A|-------------------------------------
E|-------------------------------------



E|---------------------------------------------------------------------------------3--2--
B|------------------------------------------------------------------------------3--2--3--
G|---------2--3-----------------2--3-----------------2--3-----------------2--3-----3--4--
D|--0h2h3----------------0h2h3----------------0h2h3----------------0h2h3-----------------
A|---------------3--2p1---------------3--------------------3--2p1------------------------
E|---------------------------------------5p3---------------------------------------------
http://www.guitartabcreator.com
Guitar Tab Creator is intended to store guitar tab created through the tool. It currently does not support in-line text editing. Any text you place in here will be lost. If you need to comment on your tab, please use the "Tab Notes" section located below.