Rock Licks #1 Variation

(/) Slide Up  (\) Slide Down  (h) Hammer On  (p) Pull Off  (b) Bend (r) Release (v) Vibrato
E|----------------------------------------
B|--17------15b17------17-----------------
G|-------------------------16----/19------
D|------------------------------------17--
A|----------------------------------------
E|----------------------------------------



E|----------------------------------
B|--5b7r5--3--5v------5-------3-----
G|-----------------------4----------
D|-------------------------------5--
A|----------------------------------
E|----------------------------------



E|------------------------------------
B|------------------------------------
G|--7/9----9----------9---------------
D|---------12b14---------9----12------
A|--------------------------------10--
E|------------------------------------



E|-------------------------------------------
B|--5--7--5-----7----------------------------
G|-----------7--7b9------/9--4----/7---------
D|------------------------------------5v-----
A|-------------------------------------------
E|-------------------------------------------



E|-----3--2--0-------
B|--0-----------3/5--
G|-------------------
D|-------------------
A|-------------------
E|-------------------



E|--12------12-------12-------------------
B|----------15b17--------12----14b15------
G|------------------------------------12--
D|----------------------------------------
A|----------------------------------------
E|----------------------------------------



E|------15--------------------
B|----------17/19--17--17-----
G|--16-----------------19b21--
D|----------------------------
A|----------------------------
E|----------------------------



E|------15---------------------------------------------
B|----------17/19--17--17---------17------------22b24--
G|--16-----------------19b21----------16----19---------
D|-----------------------------------------------------
A|-----------------------------------------------------
E|-----------------------------------------------------



E|----------7b8r7---------7-------7-----
B|-----------------10v-------8-------7--
G|--7h9--9------------------------------
D|--------------------------------------
A|--------------------------------------
E|-------------------------------------- x2
http://www.guitartabcreator.com
Guitar Tab Creator is intended to store guitar tab created through the tool. It currently does not support in-line text editing. Any text you place in here will be lost. If you need to comment on your tab, please use the "Tab Notes" section located below.