No More Tears - Solo Intro - Diatonic Harmony

(/) Slide Up  (\) Slide Down  (h) Hammer On  (p) Pull Off  (b) Bend (r) Release (v) Vibrato

E|---------------------------------------------------------------------------------------------------
B|--11----11--12--14--14----12--11--9--10----12b14--14r12--10--12b14--12b14--14r12----11--12--11-----
G|---------------------------------------------------------------------------------------------------
D|---------------------------------------------------------------------------------------------------
A|---------------------------------------------------------------------------------------------------
E|---------------------------------------------------------------------------------------------------



E|----------12--14v------16b17r16--14--16b17--16b17------19b21r19--17--19b21--19b21--19b21--19b21--
B|--11--12-----------------------------------------------------------------------------------------
G|-------------------------------------------------------------------------------------------------
D|-------------------------------------------------------------------------------------------------
A|-------------------------------------------------------------------------------------------------
E|-------------------------------------------------------------------------------------------------



E|--19b21--19b21--19b21r19--17------
B|------------------------------19--
G|----------------------------------
D|----------------------------------
A|----------------------------------
E|----------------------------------
http://www.guitartabcreator.com
Guitar Tab Creator is intended to store guitar tab created through the tool. It currently does not support in-line text editing. Any text you place in here will be lost. If you need to comment on your tab, please use the "Tab Notes" section located below.