New Medicine - Race You to the Bottom Solo

(/) Slide Up  (\) Slide Down  (h) Hammer On  (p) Pull Off  (b) Bend (r) Release (v) Vibrato


E|----------------------------------------------------
B|----------------------------------------------------
G|----------------------------------------------------
D|--9b11--9--7--9--7v---------------------------7--9--
A|-----------------------9----9--9--7--9--------------
E|----------------------------------------------------



E|---------------------------------------------------------
B|---------------------------------------------------------
G|---------------------------------------------------------
D|--9b11--9--7--9--7v------------------7-------------7--9--
A|-----------------------9----9--9--7-----9v------9--------
E|---------------------------------------------------------



E|-----------------------------------------
B|-----------------------------------------
G|-------------------------------9v----11--
D|--9b11--9--7--9--7--9--10--11------------
A|-----------------------------------------
E|-----------------------------------------



E|---------------------------------------------------
B|-----------------------------------------10--------
G|--9--9--9--9--9--9--9--9--11--11--11--9--------11--
D|---------------------------------------------------
A|---------------------------------------------------
E|---------------------------------------------------
http://www.guitartabcreator.com
Guitar Tab Creator is intended to store guitar tab created through the tool. It currently does not support in-line text editing. Any text you place in here will be lost. If you need to comment on your tab, please use the "Tab Notes" section located below.