Junkhead - Re-Harmonization

(/) Slide Up  (\) Slide Down  (h) Hammer On  (p) Pull Off  (b) Bend (r) Release (v) Vibrato
E|------------------------------------------------------------------------------------|--
B|-----------------------------------------9--------------9---------------------------|--
G|-----------------------11--------11--11-----11------11-----9----9--8----------------|--
D|--------------------9-------------------------------------------------11--9--11-----|--
A|--11----11--11--11---------------------------------------------------------------9--|--
E|------------------------------------------------------------------------------------|--



E|---------------------------------------------------------------------------------|--
B|-------------------10--------10--10--12--10------10--12--9----9------------------|--
G|----------------8------------------------------------------------11--9--8--9-----|--
D|--9----9--9--9----------------------------------------------------------------9--|--
A|---------------------------------------------------------------------------------|--
E|---------------------------------------------------------------------------------|--



E|-------------------11------11--11--12--11------11--12--9----9--------------------|--
B|----------------9----------------------------------------------12--10--9--10-----|--
G|--9----9--9--9----------------------------------------------------------------8--|--
D|---------------------------------------------------------------------------------|--
A|---------------------------------------------------------------------------------|--
E|---------------------------------------------------------------------------------|--
http://www.guitartabcreator.com
Guitar Tab Creator is intended to store guitar tab created through the tool. It currently does not support in-line text editing. Any text you place in here will be lost. If you need to comment on your tab, please use the "Tab Notes" section located below.