Random Parts to a song i'm making ;) Drop D




(/) Slide Up (\) Slide Down (h) Hammer On (p) Pull Off (b) Bend (r) Release (v) Vibrato


E|--18-17-15-----------------------------15-15-h18-17-15-18-17-15-18-17-15-18-17-15--|
B|----------17-15-------------------15-18--------------------------------------------|
G|---------------b17-----------15-17-------------------------------------------------|
D|------------------17-15-15-h17-----------------------------------------------------|
A|-----------------------------------------------------------------------------------|
D|-----------------------------------------------------------------------------------|



E|-----------------------------------|
B|-----------------------------------|
G|-----------------------------------|
D|--00-0-00-0-0-b9-00-00-5555-77777--|
A|--00-0-00-0-0-b9-00-00-5555-77777--|
D|--00-0-00-0-0-b9-00-00-5555-77777--|


E|--------------| E|-------------------|
B|--------------| B|-------------------|
G|--------------| G|-------------------|
D|--------------| x3 D|-------------------|
A|-----10--10-8-| A|-----10--10-8-10-0-|
D|--0-0--0------| D|--0-0---0----------|
http://www.guitartabcreator.com
Guitar Tab Creator is intended to store guitar tab created through the tool. It currently does not support in-line text editing. Any text you place in here will be lost. If you need to comment on your tab, please use the "Tab Notes" section located below.