Lost in Paradise Vocals

(/) Slide Up  (\) Slide Down  (h) Hammer On  (p) Pull Off  (b) Bend (r) Release (v) Vibrato


E|-----------------------------------------------------------------------------
B|--------8------------8------------8-------8-----------------8------------8---
G|---10-------8---10-------8---10-------8-------10---8---10-------8---10-------
D|-----------------------------------------------------------------------------
A|-----------------------------------------------------------------------------
E|-----------------------------------------------------------------------------



E|----------------------------------------------------------------------------
B|------------8------------8------------8-------8-----------------------------
G|---8---10-------8---10-------8---10-------8-------10---8---7---8---10---8---
D|----------------------------------------------------------------------------
A|----------------------------------------------------------------------------
E|----------------------------------------------------------------------------



E|--------------------------------------------------------------------8------
B|--9--9--9--8-------------8-------------8-----8--9--9--8--9--11--11-----11--
G|--------------10--8--10-----10--8--10-----8--------------------------------
D|---------------------------------------------------------------------------
A|---------------------------------------------------------------------------
E|---------------------------------------------------------------------------
http://www.guitartabcreator.com
Guitar Tab Creator is intended to store guitar tab created through the tool. It currently does not support in-line text editing. Any text you place in here will be lost. If you need to comment on your tab, please use the "Tab Notes" section located below.