Un

(/) Slide Up  (\) Slide Down  (h) Hammer On  (p) Pull Off  (b) Bend (r) Release (v) Vibrato


E|------------------------------------------------------------------
B|--------------------------------------------------------------12*-
G|--7-----------------7-----------------7---------------------------
D|-----7-----------7-----7-----------7-----7-----------7--7---------
A|--------7-----7-----------7-----7-----------7-----7--------7------
E|-----------0-----------------0-----------------0------------------



E|----------15--12----------
B|--15--12----------15--12v-
G|--------------------------
D|--------------------------
A|--------------------------
E|--------------------------
http://www.guitartabcreator.com
Guitar Tab Creator is intended to store guitar tab created through the tool. It currently does not support in-line text editing. Any text you place in here will be lost. If you need to comment on your tab, please use the "Tab Notes" section located below.