My Heart Will Go On

(/) Slide Up  (\) Slide Down  (h) Hammer On  (p) Pull Off  (b) Bend (r) Release (v) Vibrato

E|------------5--------0-----7--5p4--0--------4--7--9--------7--------2--------2-------
B|--5/7--7/9-----9--------7-------------------------------------------------2-----2h4--
G|------------------9-----6-------------4--2-----------------------------2-------------
D|------------------------7-------------------------------5--------5-------------------
A|------------------------0----------------0-----------5--------5-----0----------------
E|-------0---------------------------5--------------5----------------------------------



E|--0--------0--0-----0-----0--------0--2/4--4--5p4--2-----------------------------
B|-----------------------4-----4--4----------5-------4--0-----------0-----------0--
G|--------2--------------2-------------------4-------2--------0-----------0--------
D|-----4-----------4---------------------------------------0-----0-----0-----0-----
A|-----------------------0---------------------------0-----------------------------
E|--0-----------------------------5----------4----------5-----------5--------------



E|--0--------0--2--------2-----0--7--------5-------------------4--5--4-----------2--------0-----
B|--------------------------4--------5--------7/9--7--------------------------------5--4-----4--
G|--------4-----------4-----4-----------5-------------------6--------------2-----------4--------
D|-----4-----------2-------------------------------------7--------------------4-----------------
A|--2-----------0-------------------------------------0-----------------2--------------0--------
E|--------------------------------5-------------------------------------------------------------



E|--------------------------0--2/4--4-----------2--0--0-----------0--
B|--2-----------0-----0--4----------------------------------0-----0--
G|--------0-------------------------------2--------------0-----0--0--
D|-----0-----0-----2-------------------2-----2-----------------------
A|--------------0-------------------0--------------------------------
E|--5--------------------5----------------------------0-----------0--
http://www.guitartabcreator.com
Guitar Tab Creator is intended to store guitar tab created through the tool. It currently does not support in-line text editing. Any text you place in here will be lost. If you need to comment on your tab, please use the "Tab Notes" section located below.