mass pool

(/) Slide Up  (\) Slide Down  (h) Hammer On  (p) Pull Off  (b) Bend (r) Release (v) Vibrato
E|-----------------------------------------------------------
B|-----------------------------------------------------------
G|-----------------------------------------------------------
D|--------------------------5--------------8--7--5-----------
A|--7--7--7--7--5--7--7--7-----7--5--7--7-----------7--6--5--
E|-----------------------------------------------------------



E|--------------------------------------------------------
B|--------------------------------------------------------
G|--------------------------------------------------------
D|--------------------------5--------------5--7--8--7--5--
A|--7--7--7--7--5--7--7--7-----7--5--7--7-----------------
E|--------------------------------------------------------



E|-----------------------------------
B|-----------------------------------
G|-----------------------------------
D|--------7--5-----------------3-----
A|--7--7-----------------3--5-----5--
E|--------------5--3--3--------------



E|-----------------------------------
B|-----------------------------------
G|-----------------------------------
D|--------7--5-----------------5--7--
A|--7--7-----------------3--5--------
E|--------------5--3--3--------------



E|--------------------------------------------------------
B|--------------------------------------------------------
G|--------------------------------------------------------
D|--------------------------------------------------------
A|--7--7--7--7--5--7--7--7--5--7--7--7--5--7--7--7--3--5--
E|--------------------------------------------------------



E|--------------------------------
B|--------------------------------
G|--------------------------------
D|-----------------------3--2-----
A|--3--3--3--3--3--3--3--------3--
E|--------------------------------



E|-----------------------------------
B|-----------------------------------
G|-----------------------------------
D|-----------------------------------
A|--0--7--5--7--0--3--5--5--3--------
E|-----------------------------5--3--
http://www.guitartabcreator.com
Guitar Tab Creator is intended to store guitar tab created through the tool. It currently does not support in-line text editing. Any text you place in here will be lost. If you need to comment on your tab, please use the "Tab Notes" section located below.