dr. doom

(/) Slide Up  (\) Slide Down  (h) Hammer On  (p) Pull Off  (b) Bend (r) Release (v) Vibrato
E|-----------------------------------------
B|-----------------------------------------
G|-----------------------------------------
D|-----------------------------------4--5--
A|-----------------------------3--3--------
E|--5--3--5--6--5--6--5--3--5--------------



E|--------------------------------
B|--------------------------------
G|--------------------------------
D|--------------------------------
A|--------------------------------
E|--5--5--3--5--6--5--3--5--8--7--



E|--------------------------------
B|--------------------------------
G|--------------------------------
D|--------------------------------
A|-----------------------------4--
E|--5--5--3--5--6--5--3--5--3-----



E|---------------------------------------------
B|---------------------------------------------
G|---------------------------------------------
D|---------------------------------------------
A|---------------------------------------------
E|--3--0--0--0--0--5--4--3--0--0--0--0--10--8--



E|--------------------------
B|--------------------------
G|--------------------------
D|--------------------------
A|--5--7--8--7--5--7--8--7--
E|--------------------------



E|-----------------------------------------------------------------------------
B|-----------------------------------------------------------------------------
G|-----------------------------------------------------------------------------
D|-----------------------------------------------------------------------------
A|-----7--8--8--8--8-----7--8--4--4--4-----7--8--8--8--8-----8--7--10--10--10--
E|--3-----------------3-----------------3-----------------3--------------------



E|--------------------------------------------------
B|--------------------------------------------------
G|--------------------------------------------------
D|--------------------------------------------------
A|--5--7--8--7--5--7--8--7--5--7--8--7--8--7--5--7--
E|--------------------------------------------------



E|---------------------------------------------------
B|---------------------------------------------------
G|---------------------------------------------------
D|---------------------------------------------------
A|-----7--8--8-----7--8--4-----7--8--8-----8--7--10--
E|--3-----------3-----------3-----------3------------
http://www.guitartabcreator.com
Guitar Tab Creator is intended to store guitar tab created through the tool. It currently does not support in-line text editing. Any text you place in here will be lost. If you need to comment on your tab, please use the "Tab Notes" section located below.