Wrath Of God

(/) Slide Up  (\) Slide Down  (h) Hammer On  (p) Pull Off  (b) Bend (r) Release (v) Vibrato

Intro (Play twice):

D|----------------------------------
A|----------------------------------
F|----------5---------------4-------
C|----7---7-----------5---5---------
G|--0---0-----------0---0-----------
C|----------------------------------

Clean Guitar Part (Verse):

D|---------------------------------
A|---------------------------------
F|------5-----5-----5-----5-----5--
C|----7-----7-----7-----7-----7----
G|--0-----0-----0-----0-----0------
C|---------------------------------

D|---------------------------------
A|---------------------------------
F|------4-----4-----5-----4-----4--
C|----5-----5-----5-----5-----5----
G|--0-----0-----0-----0-----0------
C|---------------------------------

D|-----------------------------------
A|-----------------------------------
F|------2-----2-----2-----2-----2----
C|----3-----3-----3-----3-----3------
G|--0-----0-----0-----0-----0--------
C|-----------------------------------

D|---------------------------------
A|---------------------------------
F|------2-----2-----4-----4-----5--
C|----3-----3-----3-----3-----3----
G|--0-----0-----0-----0-----0------
C|---------------------------------

Play twice then:

D|------------------------------------
A|------------------------------------
F|------5-----5-----9------7-----5----
C|----7-----7-----7---10-----9-----7--
G|--0-----0-----0--------0-----0------
C|------------------------------------

D|---------------------------------
A|---------------------------------
F|------5-----5-----4-----4-----4--
C|----7-----7-----7-----7-----7----
G|--0-----0-----0-----0-----0------
C|---------------------------------

Drop C chord ring out

Guitar 1:

D|---------------------------------
A|---------------------------------
F|---------------------------------
C|---------------------------------
G|--0------------------------------
C|--0------------------------------

Let ring out until 1B of lead part then strike chord again

Guitar 2 (w/Wah):

1A:
D|---------------------------------------------------------
A|-----10-----10-----7-----7-----8-----8------8------8-----
F|--9------9------9-----9-----9-----9----------------------
C|----------------------------------------10-----10--------
G|---------------------------------------------------------
C|---------------------------------------------------------

Play 1A twice then...

1B:
D|---------------------------------------------------------
A|-----10-----10-----12-----12-----7-----7-----8-----8-----
F|--9------9------9------9------9-----9-----9-----9--------
C|---------------------------------------------------------
G|---------------------------------------------------------
C|---------------------------------------------------------

Then play 1A again

Clean part with distortion (PMuted)

Driving riff (Each chord is really strummed 16 times, though written 8 times here):

D|------------------------------------------------------------------
A|------------------------------------------------------------------
F|--7-7-7-7-7-7-7-7-9-9-9-9-9-9-9-9-10101010101010109-9-9-9-9-9-9-9-
C|------------------------------------------------------------------
G|--5-5-5-5-5-5-5-5-7-7-7-7-7-7-7-7-8-8-8-8-8-8-8-8-7-7-7-7-7-7-7-7-
C|------------------------------------------------------------------

D|------------------------------------------------------------------
A|------------------------------------------------------------------
F|--7-7-7-7-7-7-7-7-9-9-9-9-9-9-9-9-10101010101010101212121212121212
C|------------------------------------------------------------------
G|--5-5-5-5-5-5-5-5-7-7-7-7-7-7-7-7-8-8-8-8-8-8-8-8-1010101010101010
C|------------------------------------------------------------------

Heavy Riff:

D|----------------------------------
A|----------------------------------
F|----------------------------------
C|----------------------------------
G|----------------------------------
C|--0h2-2-2-2----000h2-2-2-2h3-3p2--

D|----------------------------------
A|----------------------------------
F|----------------------------------
C|----------------------------------
G|----------------------------------
C|--0h2-2-2-2----000h2-2-2-2-3(v)---

D|----------------------------------
A|----------------------------------
F|----------------------------------
C|----------------------------------
G|----------------------------------
C|--0h2-2-2-2----000h2-2-2-2h3-3p2--

D|----------------------------------------------
A|----------------------------------------------
F|----------------------------------------------
C|----------------------------------------------
G|-----------------3p2---2h3---5p3---2h3---3-p-2
C|--0h2-2-2-2----003p2-0-2h3-0-5p3-0-2h3-0-3-p-2

Drop C Chord ring out (Second Half)

Clean part with distortion (PMuted)

Driving Riff

Heavy Riff

Drop C Chord ring out

Bridge (Play 4 times):

D|-------------------------------------------------
A|-------------------------------------------------
F|-------------------------------------------------
C|-------------------------------------------------
G|--2-1-0-1-2-1-2-1-0-1-2-1-2-1-0-1-2-1-2-1-0------
C|--2-1-0-1-2-1-2-1-0-1-2-1-2-1-0-1-2-1-2-1-0-3-2-1
---------------P.M.----------------------

2 Bar Rest

Driving Riff (Second Half)

Heavy Riff

Outro Riff:

D|--------------------------------------------------------------------------------------
A|--------------------------------------------------------------------------------------
F|--------------------------------------------------------------------------------------
C|--------------------------------------------------------------------------------------
G|--0--0--0--0--------------0--0--0--0--------------0--0--0--0--------------0--0--0--0--
C|--0--0--0--0--[3][3][3][3]0--0--0--0--[2][2][2][2]0--0--0--0--[1][1][1][1]0--0--0--0--
Guitar Tab Creator is intended to store guitar tab created through the tool. It currently does not support in-line text editing. Any text you place in here will be lost. If you need to comment on your tab, please use the "Tab Notes" section located below.