Song F

(/) Slide Up  (\) Slide Down  (h) Hammer On  (p) Pull Off  (b) Bend (r) Release (v) Vibrato

Harmonic run down neck

Verse and Chorus part.... (Play 4 times)

Both guitars play below then...

D|--------------------------------------------------
A|--------------------------------------------------
F|--------------------------------------------------
C|--7--7-----7--7-----7-7-7-----7-7-7-7-7-7---------
G|--5--5-----5--5-----5-5-5-----5-5-5-5-5-5-8---7---
C|-------0-0------0-0-------0-0-------------8---7---
P.M. P.M. P.M

Guitar 1 plays:

D|-----------------------------------------------------------
A|-----------------------------------------------------------
F|-----------------------------------------------------------
C|--7--7-----7--7-----7-7-7-----7-7-7-7-7-7-------8--------7-
G|--5--5-----5--5-----5-5-5-----5-5-5-5-5-5----8--------7----
C|-------0-0------0-0-------0-0-------------8--------7-------
P.M. P.M. P.M

Guitar 2 plays:

D|-----------------------------------------------------------
A|-----------------------------------------------------------
F|-----------------------------------------------------------
C|--7--7-----7--7-----7-7-7-----7-7-7-7-7-7------[8]------[7]
G|--5--5-----5--5-----5-5-5-----5-5-5-5-5-5---[8]------[7]---
C|-------0-0------0-0-------0-0------------[8]------[7]------
P.M. P.M. P.M

Other part/Clean Riff (Before Rosemary insp/Driving section) Play twice

D|--3---------3---------2---------2------------
A|---------------------------------------------
F|-------2---------2---------2---------2-------
C|-----2---2-----2---2-----2---2-----2---2-----
G|---------------------------------------------
C|---------------------------------------------

D|---------------------------------------------
A|--0---------0---------1---------1------------
F|-------2---------2---------2---------2-------
C|-----2---2-----2---2-----2---2-----2---2-----
G|---------------------------------------------
C|---------------------------------------------

Chorus and Verse part play 8 times

Clean Part

Chorus (4x)

Bridge/Halftime part

Lead part:

D|--15-------15-------15----------15-------15--17---15-------15----------------
A|------17-------17-------17----------17----------------17-------17------------
F|-----------------------------------------------------------------------------
C|-----------------------------------------------------------------------------
G|-----------------------------------------------------------------------------
C|-----------------------------------------------------------------------------

D|--12-------12-------14-------14-------17-------17-------15-------15----------------
A|------15-------15-------15-------15------------------------------------------------
F|------------------------------------------19-------19-------17-------17-----19(v)--
C|-----------------------------------------------------------------------------------
G|-----------------------------------------------------------------------------------
C|-----------------------------------------------------------------------------------

Heavy part (Backing):

D|---------------------------------------------------------------
A|---------------------------------------------------------------
F|---------------------------------------------------------------
C|---------------------------------------------------------------
G|--5--2---5--2---5--2------5--2---5--7---5--2---5--2------------
C|--5--2---5--2---5--2------5--2---5--7---5--2---5--2------------

D|-------------------------------------------------------------------
A|-------------------------------------------------------------------
F|-------------------------------------------------------------7(v)--
C|-----------------------------------------------3-------------------
G|--2--0----------4--0----------7--0----------5--3-------------0-----
C|--2--0----------4--0----------7--0----------5----------------0-----

Harmonic run down neck

Chorus (4x)
Guitar Tab Creator is intended to store guitar tab created through the tool. It currently does not support in-line text editing. Any text you place in here will be lost. If you need to comment on your tab, please use the "Tab Notes" section located below.