New Riff (Vanden Plas insp i guess)

(/) Slide Up  (\) Slide Down  (h) Hammer On  (p) Pull Off  (b) Bend (r) Release (v) Vibrato

Main Riff:

D|-----------------------------------------------------------------------
A|-----------------------------------------------------------------------
F|-----------------------------------------------------------------------
C|--------3--3p2-2--2h3-3p2p0-0h2--------3--3p2-2--2h3-3p2p0-------------
G|------2------------------------------2---------------------3--2--0-----
C|--0-2----------------------------0-2-----------------------3--2--0-----
--PM-- --PM-- ---PM---

Verse Riff:

Play twice PMuted then play twice open.

D|-----------------------------------
A|-----------------------------------
F|-----------------------------------
C|-----------------------------------
G|--------2------3--------2-0--------
C|--0-0-0-2--0-0-3--0-2-3-----3-2----

C-Section:

D|-----------------------
A|-----------------------
F|-----------------------
C|-----------------------
G|--3------3-12---10--9--
C|--3------3-12---10--9--

Play main riff twice then:

D|--------------------------------------
A|--------------------------------------
F|--------------------------------------
C|--------------------------------------
G|--3--0-0-3--0-0-3--0-0-3--12---10--9--
C|--3--0-0-3--0-0-3--0-0-3--12---10--9--
P.M P.M P.M

Then play main riff twice again.

Verse Section

C-Section

Bridge:

D|--------------------
A|--------------------
F|--------------------
C|--------------------
G|--3--2--0--2--1--0--
C|--3--2--0--2--1--0--
---------PM---------

3 times then:

A:
D|--------------------
A|--------------------
F|--------------------
C|--------------------
G|-----------2--1--0--
C|--3--2--0-----------

B:
D|--------------------
A|--------------------
F|--------------------
C|--------------------
G|-----------1--0--3*-
C|--0--1--2-----------

After above played twice, play this twice times PMuted and twice open:

D|--------------------
A|--------------------
F|--------------------
C|--------------------
G|--3--2--0--2--1--0--
C|--3--2--0--2--1--0--

Then:

D|----------------------------------------------
A|----------------------------------------------
F|----------------------------------------------
C|----------------------------------------------
G|-------0-0---0--0-0--0-------2-2---2--2-2--2--
C|--002230-0---0--0-0--0--002232-2---2--2-2--2--
-PM-- -PM--

Play 4 times

Post lead section:

Play four times:

D|-----------------------------------
A|-----------------------------------
F|-----------------------------------
C|-----------------------------------
G|--3-2-0-0-0-0-0-0-0-0-0-0-3-2-1-2--
C|--3-2-0-0-0-0-0-0-0-0-0-0-3-2-1-2--
--------------PM---------------

Play twice (Follows rhythm of main riff):

D|---------------------------------------------------------------
A|---------------------------------------------------------------
F|---------------------------------------------------------------
C|---------------------------------------------------------------
G|--0-0-0-0--0-0-0--0-0-0-0-0-0-0-0-0-0-0--0-0-0--0-0-0-0--0--0--
C|--0-0-0-0--0-0-0--0-0-0-0-0-0-0-0-0-0-0--0-0-0--0-0-0-0--0--0--
---------------------------PM--------------------------------

Main riff x4

(End)
Guitar Tab Creator is intended to store guitar tab created through the tool. It currently does not support in-line text editing. Any text you place in here will be lost. If you need to comment on your tab, please use the "Tab Notes" section located below.