Bare Naked Sin

(/) Slide Up  (\) Slide Down  (h) Hammer On  (p) Pull Off  (b) Bend (r) Release (v) Vibrato

10 Years Section:

D|--15-----15-----15-----15-----14-----14-----14-----14---
A|------12----12------12----12------12----12------12----12
F|--------------------------------------------------------
C|--------------------------------------------------------
G|--------------------------------------------------------
C|--------------------------------------------------------

D|--12-----12-----12-----12-----14-----14-----14-----14---
A|--------------------------------------------------------
F|------13----13------13----13------14----14------14----14
C|--------------------------------------------------------
G|--------------------------------------------------------
C|--------------------------------------------------------

Driving Section (Play 2 times):

D|---------------------------
A|---------------------------
F|----------55555544444444444
C|---------------------------
G|--0h33333333333333333333333
C|--0h33333333333333333333333

D|---------------------------
A|----------55555533333333333
F|---------------------------
C|---------------------------
G|--0h33333333333333333333333
C|--0h33333333333333333333333

PM Toms Section (Play twice):

D|---------------------------------------------
A|---------------------------------------------
F|---------------------------------------------
C|---------------------------------------------
G|--1-0--0---0-1-0--0----1-0--0---0-1-0-2-0-3-0
C|--1-0--0---0-1-0--0----1-0--0---0-1-0-2-0-3-0
------------------P.M.---------------------

Machine Head Section (Play twice):

D|--------------------------------------------------------------------------------------------------
A|--------------------------------------------------------------------------------------------------
F|--------------------------------------------------------------------------------------------------
C|--------------------------------------------------------------------------------------------------
G|--------------------------------------------------------------------------------------------------
C|--1p0-0-2p0-0-3p0-2p0-1p0-1p0-0-2p0-0-3p0-2p0-1p0-1p0-0-2p0-0-3p0-2p0-1p0-5p0-4p0-3p0-7p0-6p0-5p0-

Driving Section

PM Tom Section

Machine Head Section

Bridge Section (Play 6 times):


D|--------------------------------------------------------
A|--------------------------------------------------------
F|--------------------------------------------------------
C|--------------------------------------------------------
G|----------0-0-0----------0-0-0----------0-0-0-----------
C|--2(b1/2)-0-0-0--2(b1/2)-0-0-0--2(b1/2)-0-0-0--2/666666-
-PM-- -PM-- -PM--

10 Years Section (Half)

Driving Section

Guitar Tab Creator is intended to store guitar tab created through the tool. It currently does not support in-line text editing. Any text you place in here will be lost. If you need to comment on your tab, please use the "Tab Notes" section located below.