Charlie Parra Del Riego - Game of Thrones (acustic solo)

(/) Slide Up  (\) Slide Down  (h) Hammer On  (p) Pull Off  (b) Bend (r) Release (v) Vibrato

E|--------------------------------|--------------------------------------|--
B|--------------------------------|--------------------------------------|--
G|--------------------------------|--------------------------------------|--
D|--7-----3--5--7-----3--5--7-----|--3--5--7-----3--5--7-----4--5--7-----|--
A|-----5-----------5-----------5--|-----------5-----------5-----------5--|--
E|--------------------------------|--------------------------------------|--



E|--------------------------p----|--
B|--------------------------p----|--
G|--------------------------p----|--
D|-----4--5--7-----4--5--7--p----|--
A|--5-----------5-----------p----|--
E|--------------------------p----|--
http://www.guitartabcreator.com
Guitar Tab Creator is intended to store guitar tab created through the tool. It currently does not support in-line text editing. Any text you place in here will be lost. If you need to comment on your tab, please use the "Tab Notes" section located below.