Fur Elise - Beethoven

(/) Slide Up  (\) Slide Down  (h) Hammer On  (p) Pull Off  (b) Bend (r) Release (v) Vibrato
E|-0---0---0----------------------------------------0---0---0-------------------------------------
B|---4---4-----3-1-------------0---------0-1----------4---4-----3-1-------------0-------1-0-------
G|-----------4-----2---2-----2-----1---1-------2--------------4-----2---2-----2-----1-------2---2-
D|-------------------2-----2-----2---2-------2---2--------------------2-----2-----2---2-------2---
A|-----------------0-----3-----------------0------------------------0-----3-----------------0-----
E|-----------------------------0------------------------------------------------0-----------------



E|-0---0---0----------------------------------------0---0---0---------------------------------------
B|---4---4-----3-1-------------0---------0-1----------4---4-----3-1-------------0-------1-0---------
G|-----------4-----2---2-----2-----1---1-------2--------------4-----2---2-----2-----1-------2---2---
D|-------------------2-----2-----2---2-------2---2--------------------2-----2-----2---2-------2-----
A|-----------------0-----3-----------------0------------------------0-----3-----------------0-------
E|-----------------------------0------------------------------------------------0-------------------



E|-------0-------1-0---------0-----------------------0---0-0-12---0---0---0-----
B|-0-1-3-----1-------3---0-----3-1-------3-0-0------------------4---4---4---4---
G|---------0---0-------0---0---------2-------1----------------------------------
D|---------------------------------2---2-----2-2-2-2---2------------------------
A|-------3-----------------------0-----------2----------------------------------
E|-------------------3----------------------------------------------------------



E|-0---0---0----------------------------------------0---0---0---------------------------------
B|---4---4-----3-1-------------0---------0-1----------4---4-----3-1-------------0-------1-0---
G|-----------4-----2---2-----2-----1---1-------2--------------4-----2---2-----2-----1-------2-
D|-------------------2-----2-----2---2-------2---2--------------------2-----2-----2---2-------
A|-----------------0-----3-----------------0------------------------0-----3-----------------0-
E|-----------------------------0------------------------------------------------0-------------



E|-------
B|-1-1-1-
G|-0-0-0-
D|-2-3---
A|-------
E|-----3-
http://www.guitartabcreator.com
Guitar Tab Creator is intended to store guitar tab created through the tool. It currently does not support in-line text editing. Any text you place in here will be lost. If you need to comment on your tab, please use the "Tab Notes" section located below.