john mayer- perfectly lonely

(/) Slide Up  (\) Slide Down  (h) Hammer On  (p) Pull Off  (b) Bend (r) Release (v) Vibrato

E|-------------13--12--10-------------------13--12--10-------------------------------------
B|------13/15--13--13--12--13--------13/15--13--13--12--15----15b17---------13--13--15b17--
G|------12-14--------------12--14----12-14----------16--16-----------12/14-----------------
D|-----------------------------15----------------------------------------------------------
A|-----------------------------------------------------------------------------------------
E|-----------------------------------------------------------------------------------------



E|--13----------------------------------------20---------|-----
B|------15b17--------------------------20b21------20b21--|-----
G|-------------14b16--12------14b16----------------------|-----
D|------------------------14-----------------------------|-----
A|-------------------------------------------------------|-----
E|-------------------------------------------------------|-----
http://www.guitartabcreator.com
Guitar Tab Creator is intended to store guitar tab created through the tool. It currently does not support in-line text editing. Any text you place in here will be lost. If you need to comment on your tab, please use the "Tab Notes" section located below.