Cough Syrup intro

(/) Slide Up  (\) Slide Down  (h) Hammer On  (p) Pull Off  (b) Bend (r) Release (v) Vibrato


E|--------------------------------------------------------------------------------------
B|--------------------------------------------------------------------------------------
G|--------7--------6--------7--------6--------7--------------------0-----------------0--
D|-----4--------4--------4--------4--------4--------------7-----------------7-----------
A|--5--------5--------5--------5--------5--------5-----4--------4--------4--------4-----
E|--------------------------------------------------5--------5--------5--------5--------



E|-----------------------------------------------------------------------------------------
B|-----------------------------------------------------------------------------------------
G|-----------------------------------------------------------------------------------------
D|-----------------------------------------------------------------------------------------
A|-----4--7--------2--5-----2--5-----2--5-----2--5-----2--5--------4--7-----4--7-----4--7--
E|--5--------5--3--------3--------3--------3--------3--------3--5--------5--------5--------



E|-----------------------
B|-----------------------
G|-----------------------
D|-----------------------
A|-----4--7-----4--7-----
E|--5--------5--------5--
http://www.guitartabcreator.com
Guitar Tab Creator is intended to store guitar tab created through the tool. It currently does not support in-line text editing. Any text you place in here will be lost. If you need to comment on your tab, please use the "Tab Notes" section located below.