Drew Chadwick-- (Grind On)

(/) Slide Up  (\) Slide Down  (h) Hammer On  (p) Pull Off  (b) Bend (r) Release (v) Vibrato


E|-----5-----------
B|--------6--------
G|-----------7-----
D|--------------7--
A|--5--------------
E|-----------------



E|-----7-----------
B|--------8--------
G|-----------9-----
D|--------------9--
A|--7--------------
E|-----------------



E|-----2-----------
B|--------3--------
G|-----------4-----
D|--------------4--
A|--2--------------
E|-----------------
http://www.guitartabcreator.com
Guitar Tab Creator is intended to store guitar tab created through the tool. It currently does not support in-line text editing. Any text you place in here will be lost. If you need to comment on your tab, please use the "Tab Notes" section located below.