C Major Scale (Ionian Mode) Backing Track

(/) Slide Up  (\) Slide Down  (h) Hammer On  (p) Pull Off  (b) Bend (r) Release (v) Vibrato


E|---------------------12b13r12--13b15-13-12\8-------------------------------------------
B|-17r15-13-15b17--------------------------------13-13-15-15-12-12-13-13-12-12-10-10-8-8-
G|---------------------------------------------------------------------------------------
D|---------------------------------------------------------------------------------------
A|---------------------------------------------------------------------------------------
E|---------------------------------------------------------------------------------------



E|------------15---------------------------------------------
B|-8-8-8--8-8----------------12-13-13-----13----13-13-15b17--
G|---------------------12-14-----------14----14--------------
D|------------------14---------------------------------------
A|-----------------------------------------------------------
E|-----------------------------------------------------------



E|-12-------12-------12-------12-----12-------12--------------
B|----15b17----15b17----15b17-----------15b17----15b17--15b17-
G|------------------------------------------------------------
D|------------------------------------------------------------
A|------------------------------------------------------------
E|------------------------------------------------------------
http://www.guitartabcreator.com
Guitar Tab Creator is intended to store guitar tab created through the tool. It currently does not support in-line text editing. Any text you place in here will be lost. If you need to comment on your tab, please use the "Tab Notes" section located below.