Diamonds On The inside

(/) Slide Up  (\) Slide Down  (h) Hammer On  (p) Pull Off  (b) Bend (r) Release (v) Vibrato
E|-----------------------------------------------0-------0---------------------
B|-8---8---------------------------------------0---0-3b4---0-3-----------------
G|-7h9-7-------------------------------5---2b3-----------------2b0-0-----------
D|-------7h9-7-5----------7------------------------------------------2-0-------
A|---------------5--5h7/9---9-3--3h5/7-----------------------------------2-0-3-
E|-----------------------------------------------------------------------------



E|-----------------------------------------------------------------------------
B|----------------------7h8-7-------8---8-----------------------8h10-8-10b11---
G|----------------------------9-7-9-7h9-7-----------7---7h9-7h9----------------
D|-------5------------7-------------------9\7-5h7/9---9------------------------
A|-3h5/7---7-5--5h7/9----------------------------------------------------------
E|-----------------------------------------------------------------------------



E|-10--------------------------------------------------------------------------
B|----10p8-10-8---8-10b11-8------8---8--------------6p5------------------------
G|--------------9-----------9-9--7h9-7------------------7-5-----5-5--5-7-5-7/9-
D|--------------------------------------9\7-5-7-5-----------5h7----------------
A|------------------------------------------------7----------------------------
E|-----------------------------------------------------------------------------



E|-----------------------------
B|-8p7-------------------------
G|-----9-7-----7-7-------------
D|---------7h9------7-9-7-9b10-
A|-----------------------------
E|-----------------------------
http://www.guitartabcreator.com
Guitar Tab Creator is intended to store guitar tab created through the tool. It currently does not support in-line text editing. Any text you place in here will be lost. If you need to comment on your tab, please use the "Tab Notes" section located below.