compo 6

(/) Slide Up  (\) Slide Down  (h) Hammer On  (p) Pull Off  (b) Bend (r) Release (v) Vibrato

E|--------------------------------------------------------------------------------------
B|--------------------------------------------------------------------------------------
G|--------------------------------------------------------------------------------------
D|-----------0--------------------0-----------------0-----------------------------------
A|-----5--------5--------4-----4-----4--------9--------9-----10--10-----10--12--10--10--
E|--3-----3--------3--5-----5-----------5--7-----7--------7--0-------0--------------12--



B|--------------
G|--------------
D|--------7-----
A|--7--5--7--5--
E|--7--5--5--5--
B|--5--3--------
http://www.guitartabcreator.com
Guitar Tab Creator is intended to store guitar tab created through the tool. It currently does not support in-line text editing. Any text you place in here will be lost. If you need to comment on your tab, please use the "Tab Notes" section located below.