Tu presencia es el cielo - Israel Houghton Solo

(/) Slide Up  (\) Slide Down  (h) Hammer On  (p) Pull Off  (b) Bend (r) Release (v) Vibrato

Stave 1:

E|------------------------------14--15--14------14--15--14--15--14--15--14--
B|------------------14--15--17--------------17------------------------------
G|--14--16--14--16----------------------------------------------------------
D|--------------------------------------------------------------------------
A|--------------------------------------------------------------------------
E|--------------------------------------------------------------------------

Stave 2:

E|--14--15--17--17\19--17---------17--17\19--17---------17--19\21--17--19----------------
B|-------------------------17h19-----------------17h19---------------------17h19--15h17--
G|---------------------------------------------------------------------------------------
D|---------------------------------------------------------------------------------------
A|---------------------------------------------------------------------------------------
E|---------------------------------------------------------------------------------------

Stave 3:

E|---------------------15----------------------------------------15-------------
B|--15--17--15--17b19------17b19--15------15--17--15--17--17b19------17b19--15--
G|------------------------------------16----------------------------------------
D|------------------------------------------------------------------------------
A|------------------------------------------------------------------------------
E|------------------------------------------------------------------------------

Stave 4:

E|-----------------------------15--------------------15--------------------15--------------------------
B|------15--17--15--17--17b19------17b19--15--17b19------17b19--15--17b19------17b19--17b19--15--------
G|--16-------------------------------------------------------------------------------------------------
D|-----------------------------------------------------------------------------------------------------
A|-----------------------------------------------------------------------------------------------------
E|-----------------------------------------------------------------------------------------------------

Stave 5:

E|----------------------14--15--17h19--17\19--17--14--15--15\17--15--14------
B|------15------15--17---------------------------------------------------17--
G|--16------16---------------------------------------------------------------
D|---------------------------------------------------------------------------
A|---------------------------------------------------------------------------
E|---------------------------------------------------------------------------

Stave 6:

E|----------14--15p14------------------------------------------------------------------------------
B|--15--17-------------17--15--17--14h15--------------14--15--14-----------------------------------
G|----------------------------------------16--14--16--------------16--14--16-----------------------
D|-------------------------------------------------------------------------------------------------
A|-------------------------------------------------------------------------------------------------
E|-------------------------------------------------------------------------------------------------

Stave 7:

E|----------------------------------------------------------------------------------
B|------14--15--14------------------------------14--15--14--------------14--15--14--
G|--16--------------16--14--------------14--16--------------16--14--16--------------
D|--------------------------16--14--16----------------------------------------------
A|----------------------------------------------------------------------------------
E|----------------------------------------------------------------------------------

Stave 8:

E|--------------------------------------------------------------------------
B|------------------------------14--15--14--------------14--15--14--15--14--
G|--16--14--------------14--16--------------16--14--16----------------------
D|----------16--14--16------------------------------------------------------
A|--------------------------------------------------------------------------
E|--------------------------------------------------------------------------

Stave 9:

E|--------------14--15--14--12--14--12--14--12--14--12------15\17--
B|--14--15--17------------------------------------------15---------
G|-----------------------------------------------------------------
D|-----------------------------------------------------------------
A|-----------------------------------------------------------------
E|-----------------------------------------------------------------

Stave 10:

E|--14--17--14--17--14--17\19--17------------------
B|---------------------------------17--15--17--15--
G|-------------------------------------------------
D|-------------------------------------------------
A|-------------------------------------------------
E|-------------------------------------------------

Stave 11:

E|------14--15--14------15--14--17--19--14----------
B|--17--------------15----------------------17--15--
G|--------------------------------------------------
D|--------------------------------------------------
A|--------------------------------------------------
E|--------------------------------------------------

http://www.guitartabcreator.com
Guitar Tab Creator is intended to store guitar tab created through the tool. It currently does not support in-line text editing. Any text you place in here will be lost. If you need to comment on your tab, please use the "Tab Notes" section located below.