Nada me faltara / more than enough - Israel Houghton Tutorial

(/) Slide Up  (\) Slide Down  (h) Hammer On  (p) Pull Off  (b) Bend (r) Release (v) Vibrato

Stave 1:

E|-----------------------------------
B|-----------------------------------
G|-----------------------------------
D|-----2--4--2-----------------------
A|--5-----------5-----2--3--2--2-----
E|-----------------5--------------5--

Stave 2:

E|-----------------------------------------
B|-----------------------------------------
G|-----------------------------------------
D|-----------------------------------------
A|--------------------------2--------2-----
E|--3--2--3--5--3--2--3--5-----5--5-----5--

Stave 3:

E|-----------|--------------------
B|-----------|--------------------
G|-----------|--------------------
D|-----------|--------------------
A|--5--5-----|--------3-----3--4--
E|--------2--|--5--5-----5--------

Stave 4:

E|--------|--------|-----
B|--------|--------|-----
G|--------|--------|-----
D|--------|--------|-----
A|--5--5--|--5--5--|--5--
E|--------|--------|-----

Stave 5:

E|--------------------|--------------------
B|--------------------|-----------------0--
G|-----------------0--|--------------2-----
D|--------------2-----|-----2--4--5--------
A|-----2--4--5--------|--5-----------------
E|--5-----------------|--------------------

Stave 6:

E|------------|------------------
B|--------10--|--7--10--8--7-----
G|--7---------|---------------9--
D|-----7------|------------------
A|------------|------------------
E|------------|------------------

Stave 7:

E|------------|-----------|-------3-------|-----------------
B|--------10--|-----------|---------------|-----------------
G|--7---------|--7--6--5--|--4h5-----3\4--|--4--4--2--------
D|-----7------|-----------|---------------|-----------5--4--
A|------------|-----------|---------------|-----------------
E|------------|-----------|---------------|-----------------

Stave 8:

E|--12------12------
B|------12----------
G|--------------14--
D|------------------
A|------------------
E|------------------

Stave 9:

E|------------|-----------|--------|--------|--------|-----------------
B|--------10--|-----------|--------|--------|--------|-----------------
G|--7---------|-----------|--4--5--|--4--2--|--7-----|--4--4--2--------
D|-----7------|--5--6--7--|--------|--------|-----5--|-----------5--4--
A|------------|-----------|--------|--------|--------|-----------------
E|------------|-----------|--------|--------|--------|-----------------

Stave 10:

E|--5--7-------|----------------------|--5--5--7-------|--------5--7--5--------
B|--------5\7--|--5--3--2--2--3-------|-----------5\7--|--5--7-----------7--5--
G|-------------|-----------------2\4--|----------------|-----------------------
D|-------------|----------------------|----------------|-----------------------
A|-------------|----------------------|----------------|-----------------------
E|-------------|----------------------|----------------|-----------------------

Stave 11:

E|-----------------------------8--7--8--10--12--10--
B|----------------8--7--8--10-----------------------
G|-------------9------------------------------------
D|--10--9--10---------------------------------------
A|--------------------------------------------------
E|--------------------------------------------------

Stave 12:

E|-----------------|-----------------
B|-----5--7--5-----|-----------------
G|--7-----------7--|-----4--5--4-----
D|-----------------|--7-----------7--
A|-----------------|-----------------
E|-----------------|-----------------

Stave 13:

E|-----------------------------------------
B|-----------------------------------------
G|--------------------------4--------4--7--
D|--5--4--5--7--5--4--5--7-----7--7--------
A|-----------------------------------------
E|-----------------------------------------

http://www.guitartabcreator.com
Guitar Tab Creator is intended to store guitar tab created through the tool. It currently does not support in-line text editing. Any text you place in here will be lost. If you need to comment on your tab, please use the "Tab Notes" section located below.