Banjo Kazooie Pause Music

(/) Slide Up  (\) Slide Down  (h) Hammer On  (p) Pull Off  (b) Bend (r) Release (v) Vibrato

E|------------------------------------------------------------------------------------------------
B|------------------------------------------------------------------------------------------------
G|------------------------------------------------------------------------------------------------
D|--10--------------10--------------10------------10-------------------7----------------7---------
A|------10--12--10------10--12--10------9--11--9------9--11--9--10--7-----10--7--10--7-----10--7--
E|------------------------------------------------------------------------------------------------



E|-------------------------------------------------------------------------------------------------
B|-------------------------------------------------------------------------------------------------
G|-------------------------------------------------------------------------------------------------
D|--10--------------10--------------10------------10-----------------------------------------------
A|------10--12--10------10--12--10------9--11--9------9--11--9--10--10--12--13--12--10--13--10--7--
E|-------------------------------------------------------------------------------------------------



E|------------------------------------------------------------------------------------------------
B|-----------------------------------------------------------------------10-----------------------
G|----------------10------------------------------------------10--9--10----------7--8--9--10--10--
D|------------10------11--11--10--11--13--10------12--10---------------------10-------------------
A|--8--8--12----------------------------------12----------12--------------------------------------
E|------------------------------------------------------------------------------------------------



E|-----------------------------------------------------------------------------------------------
B|----------------------------9--------------10----------10--------------------------10--12--10--
G|--9--10--8---------------------10--10--12------12--10------10------12--12--12--12--------------
D|------------11--11--10--11-------------------------------------10------------------------------
A|-----------------------------------------------------------------------------------------------
E|-----------------------------------------------------------------------------------------------



E|--------------------------------------------------------------------------------------
B|--------------------------10--11--10------------8--10--8------------------------------
G|--12------12--12--12--12--------------12--9--7------------7-----------7-----7---------
D|------12-----------------------------------------------------9--8--9-----9-----9------
A|----------------------------------------------------------------------------------10--
E|--------------------------------------------------------------------------------------



E|-----------------------------------------------------------------------------------------------------
B|-----------------------------------------------------------------------------------------------------
G|--12--------------12--------------12--------------12-------------------------------------------------
D|------12--14--12------12--14--12------11--13--11------11--13--11--12--12--14--15--14--12--15--12--9--
A|-----------------------------------------------------------------------------------------------------
E|-----------------------------------------------------------------------------------------------------
http://www.guitartabcreator.com
Guitar Tab Creator is intended to store guitar tab created through the tool. It currently does not support in-line text editing. Any text you place in here will be lost. If you need to comment on your tab, please use the "Tab Notes" section located below.