asdflkjasd;pf

(/) Slide Up  (\) Slide Down  (h) Hammer On  (p) Pull Off  (b) Bend (r) Release (v) Vibrato


E|-----------------------------------------------------------------------------------------------
B|-----------------------------------------------------------------------------------------------
G|-----------------------------------------------------------------------------------------------
D|-----------------------------------------------------------------------------------------------
A|--3--3--------------6--6--3--3--------0--2--3--3--------0--2--3--3--------------6--6--3--3-----
E|--------3--3--4--4--------------3--3--------------3--3--------------3--3--4--4-----------------



E|-----------------------------------------------------------------------------------------------
B|-----------------------------------------------------------------------------------------------
G|-----------------------------------------------------------------------------------------------
D|-----------------------3--3--------------6--6--3--3--------0--2--3--3--------0--2--3--3--------
A|--------3--3--1--0-----------3--3--4--4--------------3--3--------------3--3--------------3--3--
E|--3--3--------------3--------------------------------------------------------------------------



E|-----------------------------------------------------------------------------------------------
B|-----------------------------------------------------------------------------------------------
G|-----------------------------------------------------------------------------------------------
D|--------6--6--3--3--------3--3--------5--5-----------------4--5--5-----------4--5--5-----------
A|--4--4--------------3--3--------3--3--------5--5--6--6--------------5--5--7-----------5--5--7--
E|--------------------------------------------------------6--------------------------------------



E|-----------------------------------------------------
B|-----------------------------------------------------
G|-----------------------------------------------------
D|--4--5--5-----------------4--5--5--------5--5--------
A|-----------5--5--6--6--------------5--5--------5--5--
E|-----------------------6-----------------------------
http://www.guitartabcreator.com
Guitar Tab Creator is intended to store guitar tab created through the tool. It currently does not support in-line text editing. Any text you place in here will be lost. If you need to comment on your tab, please use the "Tab Notes" section located below.