Visions of death

(/) Slide (h) Harmonic  (p) Palm mute  (t) tremelo (s) spike (v) Vibrato
E|----------------------------------------------------------------------------
B|----------------------------------------------------------------------------
G|----------------------------------------------------------------------------
D|--5//7--------------5//7--5//7--------------10//9--10//9--------------------
A|--3//5--------------3//5--3//5--------------8-//7--8-//7--------------------
D|--------0--0--0--0--------------0--0--0--0----------------0--0--0--0--0--0--



E|----------------------------------
B|----------------------------------
G|----------------------------------
D|--15--14--12--------------12v--v--
A|--------------15--14--15----------
D|----------------------------------



E|----------------------------------------------------------------------------
B|----------------------------------------------------------------------------
G|----------------------------------------------------------------------------
D|--5//7--------------5//7--5//7--------------10//9--10//9--------------------
A|--3//5--------------3//5--3//5--------------8-//7--8-//7--------------------
D|--------0--0--0--0--------------0--0--0--0----------------0--0--0--0--0--0--



E|--12--12--12--12--------------------------------------------------
B|------------------12--12--12--12----------------------------------
G|----------------------------------12--12--12--12------------------
D|--------------------------------------------------12--12--12--12--
A|------------------------------------------------------------------
D|------------------------------------------------------------------



E|------------------------------------------------------------------------ B|------------------------------------------------------------------------
G|------------------------------------------------------------------------
D|--5//7------------5//7--5//7-------------10//9--10//9-------------------
A|--3//5------------3//5--3//5-------------8-//7--8-//7-------------------
D|-------0--0--0--0-------------0--0--0--0--------------0--0--0--0--0--0--



E|----------------------------------------------
B|----------------------------------------------
G|----------------------------------------------
D|--------------------------------------12v--v--
A|----------------------------------------------
D|--0--0--0--0--0--0--0--0--0--0--0--0----------



E|--------------------------------------------
B|--------------------------------------------
G|--------------------------------------------
D|--5//8--7-----------7-----7--------5//8--7--
A|--3//6--5-----------5-----5--------3//6--5--
D|-----------0--0--0-----0-----0--0-----------



E|----------------------------------------------
B|----------------------------------------------
G|----------------------------------------------
D|--7//10--9-----------9-----9--------7//10--9--
A|--5//8---7-----------7-----7--------5//8---7--
D|------------0--0--0-----0-----0--0------------



E|---------------------------------------------
B|---------------------------------------------
G|---------------------------------------------
D|--7--------------7--10--5--------------5--3--
A|--7--------------7--10--5--------------5--3--
D|--7--7--7--7--7--7--10--5--5--5--5--5--5--3--



E|--------------------------------------------------------
B|--------------------------------------------------------
G|--------------------------------------------------------
D|--0--------------------0--------------------0-----------
A|--0--------------------0--------------------0-----------
D|--0--0--0--0--0--0--0--0--0--0--0--0--0--0--0--0--0--0--



E|--------------------------------------------------------
B|--------------------------------------------------------
G|--------------------------------------------------------
D|--3--------------------3--------------------3-----------
A|--3--------------------3--------------------3-----------
D|--3--3--3--3--3--3--3--3--3--3--3--3--3--3--3--3--3--3--



E|--------------------------------------------------------
B|--------------------------------------------------------
G|--------------------------------------------------------
D|--8--------------------8--------------------8-----------
A|--8--------------------8--------------------8-----------
D|--8--8--8--8--8--8--8--8--8--8--8--8--8--8--8--8--8--8--



E|-----------------------------------------------
B|-----------------------------------------------
G|-----------------------------------------------
D|--5--------------------------------------5--3--
A|--5--------------------------------------5--3--
D|--5--5--5--5--5--5--5--5--5--5--5--5--5--5--3--



E|--------------------------------------------------------
B|--------------------------------------------------------
G|--------------------------------------------------------
D|--0-----------------------------------------------------
A|--0-----------------------------------------------------
E|--0--0--0--0--0--0--0--0--0--0--0--0--0--0--0--0--0-----



E|-----------------------------------------------------
B|-----------------------------------------------------
G|-----------------------------------------------------
D|--3--------------------------------------------------
A|--3--------------------------------------------------
D|--3--3--3--3--3--3--3--3--3--3--3--3--3--3--3--3--3--



E|-----------------------------------------------------
B|-----------------------------------------------------
G|-----------------------------------------------------
D|--8--------------------------------------------------
A|--8--------------------------------------------------
D|--8--8--8--8--8--8--8--8--8--8--8--8--8--8--8--8--8--



E|-----------------------------------------------
B|-----------------------------------------------
G|-----------------------------------------------
D|--5--------------------------------------5--3--
A|--5--------------------------------------5--3--
D|--5--5--5--5--5--5--5--5--5--5--5--5--5--5--3--



E|-----------------------------------------------------------
B|-----------------------------------------------------------
G|-----------------------------------------------------------
D|-----------------------------------------------------------
A|--0--0--0--0--0--0-0--0--0--0--0--0--0--0--0--0--0--0--1--
D|--0--0--0--0--0--0-0--0--0--0--0--0--0--0--0--0--0--0--1--



E|--------------------------------------------------------------------
B|--------------------------------------------------------------------
G|--------------------------------------------------------------------
D|--------------------------------------------------------------------
A|--0--0--0--0--0--0--0--0--0--0--0--0--0--0--0--0--0--0--1--0--0--3--
D|--0--0--0--0--0--0--0--0--0--0--0--0--0--0--0--0--0--0--1--0--0--3--



E|----------------------------------------------------------
B|----------------------------------------------------------
G|----------------------------------------------------------
D|--0-----------------------------------------------12h--h--
A|--0--0--0--0--0--0--0--0--0--0--0--0--0--0--0--0----------
D|--0--0--0--0--0--0--0--0--0--0--0--0--0--0--0--0----------



E|-----------------------------------------------------------------
B|-----------------------------------------------------------------
G|-----10v--v--0--5--0--7--0--9--0--7--0--5--0--3--0--5--0--4v--v--
D|-----------------------------------------------------------------
A|-----------------------------------------------------------------
D|--0(S)-----------------------------------------------------------



E|-----------------------------------------------------
B|--10--9--7-------------------------------------------
G|------------10--9--7--6-----------------6--7--9--10--
D|-------------------------8--7--5--7--8---------------
A|-----------------------------------------------------
E|-----------------------------------------------------



E|--------------------------------------------------------------------------------------------
B|------------------------------------------------9--11--12--9--11--12--9--11--12--9--11--12--
G|--9--11--12--9--11--12--12--14--15--12--14--15----------------------------------------------
D|--------------------------------------------------------------------------------------------
A|--------------------------------------------------------------------------------------------
D|--------------------------------------------------------------------------------------------



E|------------------------
B|--9--11--12--9--11--12--
G|------------------------
D|------------------------
A|------------------------
D|------------------------



E|--------------------------------------------------------------
B|--0--0--12--0--0--13--0--0--15--0--0--13--0--0--12--0--0--10--
G|--------------------------------------------------------------
D|--------------------------------------------------------------
A|--------------------------------------------------------------
D|--------------------------------------------------------------



E|--------------------------------------------------------------
B|--0--0--12--0--0--13--0--0--15--0--0--13--0--0--12--0--0--10--
G|--------------------------------------------------------------
D|--------------------------------------------------------------
A|--------------------------------------------------------------
D|--------------------------------------------------------------



E|------------------------------------------------------------------------------------------
B|--12--14--15--12--14--15--12--14--15--12--14--15--13--15--16--13--15--16--18v--v--20v--v--
G|------------------------------------------------------------------------------------------
D|------------------------------------------------------------------------------------------
A|------------------------------------------------------------------------------------------
D|------------------------------------------------------------------------------------------



E|--
B|--
G|--
D|--
A|--
E|--
http://www.guitartabcreator.com
Guitar Tab Creator is intended to store guitar tab created through the tool. It currently does not support in-line text editing. Any text you place in here will be lost. If you need to comment on your tab, please use the "Tab Notes" section located below.